  0
SECTION
  2
HEADER
  9
$ACADVER
  1
AC1032
  9
$ACADMAINTVER
 90
      204
  9
$DWGCODEPAGE
  3
ANSI_1252
  9
$LASTSAVEDBY
  1
kentp
  9
$REQUIREDVERSIONS
160
                 0
  9
$INSBASE
 10
0.0
 20
0.0
 30
0.0
  9
$EXTMIN
 10
-0.0014462002106654
 20
-0.0008845866789926
 30
-0.0015258207003583
  9
$EXTMAX
 10
70.49314465994618
 20
42.78105407094152
 30
0.0000000349246037
  9
$LIMMIN
 10
0.0
 20
0.0
  9
$LIMMAX
 10
12.0
 20
9.0
  9
$ORTHOMODE
 70
     0
  9
$REGENMODE
 70
     1
  9
$FILLMODE
 70
     1
  9
$QTEXTMODE
 70
     0
  9
$MIRRTEXT
 70
     1
  9
$LTSCALE
 40
0.5
  9
$ATTMODE
 70
     1
  9
$TEXTSIZE
 40
0.25
  9
$TRACEWID
 40
0.05
  9
$TEXTSTYLE
  7
STANDARD
  9
$CLAYER
  8
0
  9
$CELTYPE
  6
BYLAYER
  9
$CECOLOR
 62
   256
  9
$CELTSCALE
 40
1.0
  9
$DISPSILH
 70
     0
  9
$DIMSCALE
 40
1.0
  9
$DIMASZ
 40
0.2
  9
$DIMEXO
 40
0.125
  9
$DIMDLI
 40
0.375
  9
$DIMRND
 40
0.0
  9
$DIMDLE
 40
0.0
  9
$DIMEXE
 40
0.125
  9
$DIMTP
 40
0.0
  9
$DIMTM
 40
0.0
  9
$DIMTXT
 40
0.25
  9
$DIMCEN
 40
0.0
  9
$DIMTSZ
 40
0.0
  9
$DIMTOL
 70
     0
  9
$DIMLIM
 70
     0
  9
$DIMTIH
 70
     0
  9
$DIMTOH
 70
     0
  9
$DIMSE1
 70
     0
  9
$DIMSE2
 70
     0
  9
$DIMTAD
 70
     1
  9
$DIMZIN
 70
     3
  9
$DIMBLK
  1

  9
$DIMASO
 70
     1
  9
$DIMSHO
 70
     1
  9
$DIMPOST
  1

  9
$DIMAPOST
  1

  9
$DIMALT
 70
     0
  9
$DIMALTD
 70
     2
  9
$DIMALTF
 40
25.4
  9
$DIMLFAC
 40
1.0
  9
$DIMTOFL
 70
     0
  9
$DIMTVP
 40
0.0
  9
$DIMTIX
 70
     0
  9
$DIMSOXD
 70
     0
  9
$DIMSAH
 70
     0
  9
$DIMBLK1
  1

  9
$DIMBLK2
  1

  9
$DIMSTYLE
  2
STANDARD
  9
$DIMCLRD
 70
     0
  9
$DIMCLRE
 70
     0
  9
$DIMCLRT
 70
     0
  9
$DIMTFAC
 40
1.0
  9
$DIMGAP
 40
0.125
  9
$DIMJUST
 70
     0
  9
$DIMSD1
 70
     0
  9
$DIMSD2
 70
     0
  9
$DIMTOLJ
 70
     1
  9
$DIMTZIN
 70
     3
  9
$DIMALTZ
 70
     3
  9
$DIMALTTZ
 70
     3
  9
$DIMUPT
 70
     0
  9
$DIMDEC
 70
     5
  9
$DIMTDEC
 70
     5
  9
$DIMALTU
 70
     4
  9
$DIMALTTD
 70
     2
  9
$DIMTXSTY
  7
STANDARD
  9
$DIMAUNIT
 70
     0
  9
$DIMADEC
 70
     0
  9
$DIMALTRND
 40
0.0
  9
$DIMAZIN
 70
     0
  9
$DIMDSEP
 70
    46
  9
$DIMATFIT
 70
     0
  9
$DIMFRAC
 70
     2
  9
$DIMLDRBLK
  1

  9
$DIMLUNIT
 70
     4
  9
$DIMLWD
 70
    -2
  9
$DIMLWE
 70
    -2
  9
$DIMTMOVE
 70
     0
  9
$DIMFXL
 40
1.0
  9
$DIMFXLON
 70
     0
  9
$DIMJOGANG
 40
0.7853981633974483
  9
$DIMTFILL
 70
     0
  9
$DIMTFILLCLR
 70
     0
  9
$DIMARCSYM
 70
     0
  9
$DIMLTYPE
  6

  9
$DIMLTEX1
  6

  9
$DIMLTEX2
  6

  9
$DIMTXTDIRECTION
 70
     0
  9
$LUNITS
 70
     2
  9
$LUPREC
 70
     5
  9
$SKETCHINC
 40
0.1
  9
$FILLETRAD
 40
0.0
  9
$AUNITS
 70
     0
  9
$AUPREC
 70
     0
  9
$MENU
  1
ACAD
  9
$ELEVATION
 40
0.0
  9
$PELEVATION
 40
0.0
  9
$THICKNESS
 40
0.0
  9
$LIMCHECK
 70
     0
  9
$CHAMFERA
 40
0.0
  9
$CHAMFERB
 40
0.0
  9
$CHAMFERC
 40
0.0
  9
$CHAMFERD
 40
0.0
  9
$SKPOLY
 70
     0
  9
$TDCREATE
 40
2450777.537569445
  9
$TDUCREATE
 40
2450777.745904282
  9
$TDUPDATE
 40
2460332.477951389
  9
$TDUUPDATE
 40
2460332.686284722
  9
$TDINDWG
 40
0.8133243403
  9
$TDUSRTIMER
 40
0.8133243403
  9
$USRTIMER
 70
     1
  9
$ANGBASE
 50
0.0
  9
$ANGDIR
 70
     0
  9
$PDMODE
 70
     0
  9
$PDSIZE
 40
0.0
  9
$PLINEWID
 40
0.0
  9
$SPLFRAME
 70
     0
  9
$SPLINETYPE
 70
     6
  9
$SPLINESEGS
 70
     8
  9
$HANDSEED
  5
B345
  9
$SURFTAB1
 70
     6
  9
$SURFTAB2
 70
     6
  9
$SURFTYPE
 70
     6
  9
$SURFU
 70
     6
  9
$SURFV
 70
     6
  9
$UCSBASE
  2

  9
$UCSNAME
  2

  9
$UCSORG
 10
0.0
 20
0.0
 30
0.0
  9
$UCSXDIR
 10
1.0
 20
0.0
 30
0.0
  9
$UCSYDIR
 10
0.0
 20
1.0
 30
0.0
  9
$UCSORTHOREF
  2

  9
$UCSORTHOVIEW
 70
     0
  9
$UCSORGTOP
 10
0.0
 20
0.0
 30
0.0
  9
$UCSORGBOTTOM
 10
0.0
 20
0.0
 30
0.0
  9
$UCSORGLEFT
 10
0.0
 20
0.0
 30
0.0
  9
$UCSORGRIGHT
 10
0.0
 20
0.0
 30
0.0
  9
$UCSORGFRONT
 10
0.0
 20
0.0
 30
0.0
  9
$UCSORGBACK
 10
0.0
 20
0.0
 30
0.0
  9
$PUCSBASE
  2

  9
$PUCSNAME
  2

  9
$PUCSORG
 10
0.0
 20
0.0
 30
0.0
  9
$PUCSXDIR
 10
1.0
 20
0.0
 30
0.0
  9
$PUCSYDIR
 10
0.0
 20
1.0
 30
0.0
  9
$PUCSORTHOREF
  2

  9
$PUCSORTHOVIEW
 70
     0
  9
$PUCSORGTOP
 10
0.0
 20
0.0
 30
0.0
  9
$PUCSORGBOTTOM
 10
0.0
 20
0.0
 30
0.0
  9
$PUCSORGLEFT
 10
0.0
 20
0.0
 30
0.0
  9
$PUCSORGRIGHT
 10
0.0
 20
0.0
 30
0.0
  9
$PUCSORGFRONT
 10
0.0
 20
0.0
 30
0.0
  9
$PUCSORGBACK
 10
0.0
 20
0.0
 30
0.0
  9
$USERI1
 70
     0
  9
$USERI2
 70
     0
  9
$USERI3
 70
     0
  9
$USERI4
 70
     0
  9
$USERI5
 70
     0
  9
$USERR1
 40
0.0
  9
$USERR2
 40
0.0
  9
$USERR3
 40
0.0
  9
$USERR4
 40
0.0
  9
$USERR5
 40
0.0
  9
$WORLDVIEW
 70
     1
  9
$SHADEDGE
 70
     3
  9
$SHADEDIF
 70
    70
  9
$TILEMODE
 70
     1
  9
$MAXACTVP
 70
    16
  9
$PINSBASE
 10
0.0
 20
0.0
 30
0.0
  9
$PLIMCHECK
 70
     0
  9
$PEXTMIN
 10
1.000000000000000E+20
 20
1.000000000000000E+20
 30
1.000000000000000E+20
  9
$PEXTMAX
 10
-1.000000000000000E+20
 20
-1.000000000000000E+20
 30
-1.000000000000000E+20
  9
$PLIMMIN
 10
0.0
 20
0.0
  9
$PLIMMAX
 10
12.0
 20
9.0
  9
$UNITMODE
 70
     0
  9
$VISRETAIN
 70
     0
  9
$PLINEGEN
 70
     0
  9
$PSLTSCALE
 70
     1
  9
$TREEDEPTH
 70
  3020
  9
$CMLSTYLE
  2
STANDARD
  9
$CMLJUST
 70
     0
  9
$CMLSCALE
 40
1.0
  9
$PROXYGRAPHICS
 70
     1
  9
$MEASUREMENT
 70
     0
  9
$CELWEIGHT
370
    -1
  9
$ENDCAPS
280
     0
  9
$JOINSTYLE
280
     0
  9
$LWDISPLAY
290
     0
  9
$INSUNITS
 70
     0
  9
$HYPERLINKBASE
  1

  9
$STYLESHEET
  1
monochrome2.ctb
  9
$XEDIT
290
     1
  9
$CEPSNTYPE
380
     0
  9
$PSTYLEMODE
290
     1
  9
$FINGERPRINTGUID
  2
{057E3B53-6801-4EFD-99D6-BD87F06000AA}
  9
$VERSIONGUID
  2
{7B2648F1-43F2-5440-9B7B-73E2FCC6F94A}
  9
$EXTNAMES
290
     1
  9
$PSVPSCALE
 40
0.0
  9
$OLESTARTUP
290
     0
  9
$SORTENTS
280
   127
  9
$INDEXCTL
280
     0
  9
$HIDETEXT
280
     0
  9
$XCLIPFRAME
280
     2
  9
$HALOGAP
280
     0
  9
$OBSCOLOR
 70
   257
  9
$OBSLTYPE
280
     0
  9
$INTERSECTIONDISPLAY
280
     0
  9
$INTERSECTIONCOLOR
 70
   257
  9
$DIMASSOC
280
     2
  9
$PROJECTNAME
  1

  9
$CAMERADISPLAY
290
     0
  9
$LENSLENGTH
 40
50.0
  9
$CAMERAHEIGHT
 40
0.0
  9
$STEPSPERSEC
 40
2.0
  9
$STEPSIZE
 40
6.0
  9
$3DDWFPREC
 40
2.0
  9
$PSOLWIDTH
 40
0.25
  9
$PSOLHEIGHT
 40
4.0
  9
$LOFTANG1
 40
1.570796326794896
  9
$LOFTANG2
 40
1.570796326794896
  9
$LOFTMAG1
 40
0.0
  9
$LOFTMAG2
 40
0.0
  9
$LOFTPARAM
 70
     7
  9
$LOFTNORMALS
280
     1
  9
$LATITUDE
 40
37.795
  9
$LONGITUDE
 40
-122.394
  9
$NORTHDIRECTION
 40
0.0
  9
$TIMEZONE
 70
 -8000
  9
$LIGHTGLYPHDISPLAY
280
     1
  9
$TILEMODELIGHTSYNCH
280
     1
  9
$CMATERIAL
347
8222
  9
$SOLIDHIST
280
     0
  9
$SHOWHIST
280
     1
  9
$DWFFRAME
280
     2
  9
$DGNFRAME
280
     0
  9
$REALWORLDSCALE
290
     1
  9
$INTERFERECOLOR
 62
     1
  9
$INTERFEREOBJVS
345
8244
  9
$INTERFEREVPVS
346
83AF
  9
$CSHADOW
280
     0
  9
$SHADOWPLANELOCATION
 40
0.0
  0
ENDSEC
  0
SECTION
  2
CLASSES
  0
CLASS
  1
DICTIONARYVAR
  2
AcDbDictionaryVar
  3
ObjectDBX Classes
 90
        0
 91
       14
280
     0
281
     0
  0
CLASS
  1
ACDBDICTIONARYWDFLT
  2
AcDbDictionaryWithDefault
  3
ObjectDBX Classes
 90
        0
 91
        1
280
     0
281
     0
  0
CLASS
  1
TABLESTYLE
  2
AcDbTableStyle
  3
ObjectDBX Classes
 90
     4095
 91
        1
280
     0
281
     0
  0
CLASS
  1
MATERIAL
  2
AcDbMaterial
  3
ObjectDBX Classes
 90
     1153
 91
        3
280
     0
281
     0
  0
CLASS
  1
VISUALSTYLE
  2
AcDbVisualStyle
  3
ObjectDBX Classes
 90
     4095
 91
       26
280
     0
281
     0
  0
CLASS
  1
SCALE
  2
AcDbScale
  3
ObjectDBX Classes
 90
     1153
 91
       17
280
     0
281
     0
  0
CLASS
  1
MLEADERSTYLE
  2
AcDbMLeaderStyle
  3
ACDB_MLEADERSTYLE_CLASS
 90
     4095
 91
        1
280
     0
281
     0
  0
CLASS
  1
SORTENTSTABLE
  2
AcDbSortentsTable
  3
ObjectDBX Classes
 90
        0
 91
        5
280
     0
281
     0
  0
CLASS
  1
CELLSTYLEMAP
  2
AcDbCellStyleMap
  3
ObjectDBX Classes
 90
     1152
 91
        1
280
     0
281
     0
  0
CLASS
  1
EXACXREFPANELOBJECT
  2
ExAcXREFPanelObject
  3
EXAC_ESW
 90
     1025
 91
        1
280
     0
281
     0
  0
CLASS
  1
NPOCOLLECTION
  2
AcDbImpNonPersistentObjectsCollection
  3
ObjectDBX Classes
 90
     1153
 91
        1
280
     0
281
     0
  0
CLASS
  1
ACAD_EVALUATION_GRAPH
  2
AcDbEvalGraph
  3
ObjectDBX Classes
 90
     1153
 91
        0
280
     0
281
     0
  0
CLASS
  1
ACAECUSTOBJ
  2
AcAeEditorObj
  3
AcAeEditorObj
 90
     1024
 91
        0
280
     0
281
     0
  0
CLASS
  1
ACDB_DYNAMICBLOCKPURGEPREVENTER_VERSION
  2
AcDbDynamicBlockPurgePreventer
  3
ObjectDBX Classes
 90
     1153
 91
        0
280
     0
281
     0
  0
CLASS
  1
ACDBSECTIONVIEWSTYLE
  2
AcDbSectionViewStyle
  3
ObjectDBX Classes
 90
     1025
 91
        1
280
     0
281
     0
  0
CLASS
  1
ACDBDETAILVIEWSTYLE
  2
AcDbDetailViewStyle
  3
ObjectDBX Classes
 90
     1025
 91
        1
280
     0
281
     0
  0
CLASS
  1
DIMASSOC
  2
AcDbDimAssoc
  3
"AcDbDimAssoc|Product Desc:     AcDim ARX App For Dimension|Company:          Autodesk, Inc.|WEB Address:      www.autodesk.com"
 90
        0
 91
        0
280
     0
281
     0
  0
ENDSEC
  0
SECTION
  2
TABLES
  0
TABLE
  2
VPORT
  5
8
102
{ACAD_XDICTIONARY
360
82F9
102
}
330
0
100
AcDbSymbolTable
 70
     1
  0
VPORT
  5
8363
330
8
100
AcDbSymbolTableRecord
100
AcDbViewportTableRecord
  2
*Active
 70
     0
 10
0.0
 20
0.0
 11
1.0
 21
1.0
 12
35.24584922986776
 22
21.39008474213126
 13
0.0
 23
0.0
 14
1.0
 24
1.0
 15
0.0
 25
0.0
 16
0.0
 26
0.0
 36
1.0
 17
0.0
 27
0.0
 37
0.0
 40
43.09767252225239
 41
1.993842364532019
 42
50.0
 43
0.0
 44
0.0
 50
0.0
 51
0.0
 71
     0
 72
  2000
 73
     1
 74
     0
 75
     0
 76
     0
 77
     0
 78
     2
281
     0
 65
     1
110
0.0
120
0.0
130
0.0
111
1.0
121
0.0
131
0.0
112
0.0
122
1.0
132
0.0
 79
     0
146
0.0
348
8240
 60
     3
 61
     5
292
     1
282
     1
141
0.0
142
0.0
 63
   250
421
  3355443
1001
ACAD_NAV_VCDISPLAY
1070
     0
  0
ENDTAB
  0
TABLE
  2
LTYPE
  5
5
330
0
100
AcDbSymbolTable
 70
     7
  0
LTYPE
  5
11
330
5
100
AcDbSymbolTableRecord
100
AcDbLinetypeTableRecord
  2
BYBLOCK
 70
     0
  3

 72
    65
 73
     0
 40
0.0
  0
LTYPE
  5
12
330
5
100
AcDbSymbolTableRecord
100
AcDbLinetypeTableRecord
  2
BYLAYER
 70
     0
  3

 72
    65
 73
     0
 40
0.0
  0
LTYPE
  5
13
330
5
100
AcDbSymbolTableRecord
100
AcDbLinetypeTableRecord
  2
CONTINUOUS
 70
     0
  3
Solid line
 72
    65
 73
     0
 40
0.0
  0
LTYPE
  5
7729
330
5
100
AcDbSymbolTableRecord
100
AcDbLinetypeTableRecord
  2
HIDDEN
 70
     0
  3
DASHED LINE
 72
    65
 73
     2
 40
0.375
 49
0.25
 74
     0
 49
-0.125
 74
     0
  0
LTYPE
  5
8805
330
5
100
AcDbSymbolTableRecord
100
AcDbLinetypeTableRecord
  2
DASHED
 70
     0
  3
Dashed __ __ __ __ __ __ __ __ __ __ __ __ __ _
 72
    65
 73
     2
 40
0.75
 49
0.5
 74
     0
 49
-0.25
 74
     0
  0
LTYPE
  5
8806
330
5
100
AcDbSymbolTableRecord
100
AcDbLinetypeTableRecord
  2
DOT
 70
     0
  3
Dot . . . . . . . . . . . . . . . . . . . . . .
 72
    65
 73
     2
 40
0.25
 49
0.0
 74
     0
 49
-0.25
 74
     0
  0
LTYPE
  5
90C1
330
5
100
AcDbSymbolTableRecord
100
AcDbLinetypeTableRecord
  2
CENTER
 70
     0
  3
CENTER LINE
 72
    65
 73
     4
 40
2.0
 49
1.25
 74
     0
 49
-0.25
 74
     0
 49
0.25
 74
     0
 49
-0.25
 74
     0
  0
LTYPE
  5
AFB0
330
5
100
AcDbSymbolTableRecord
100
AcDbLinetypeTableRecord
  2
PHANTOM
 70
     0
  3
Phantom ______  __  __  ______  __  __  ______
 72
    65
 73
     6
 40
2.5
 49
1.25
 74
     0
 49
-0.25
 74
     0
 49
0.25
 74
     0
 49
-0.25
 74
     0
 49
0.25
 74
     0
 49
-0.25
 74
     0
  0
ENDTAB
  0
TABLE
  2
LAYER
  5
2
102
{ACAD_XDICTIONARY
360
807B
102
}
330
0
100
AcDbSymbolTable
 70
    14
  0
LAYER
  5
E
102
{ACAD_XDICTIONARY
360
8286
102
}
330
2
100
AcDbSymbolTableRecord
100
AcDbLayerTableRecord
  2
0
 70
     0
 62
     7
  6
CONTINUOUS
370
    -3
390
7E3B
347
8232
348
0
  0
LAYER
  5
273
102
{ACAD_XDICTIONARY
360
8288
102
}
330
2
100
AcDbSymbolTableRecord
100
AcDbLayerTableRecord
  2
R-SWTS-DET1
 70
     0
 62
     1
  6
CONTINUOUS
370
    -3
390
7E3B
347
8232
348
0
  0
LAYER
  5
277
102
{ACAD_XDICTIONARY
360
828A
102
}
330
2
100
AcDbSymbolTableRecord
100
AcDbLayerTableRecord
  2
R-ANNO-DIMS
 70
     0
 62
     3
  6
CONTINUOUS
370
    -3
390
7E3B
347
8232
348
0
  0
LAYER
  5
42D
102
{ACAD_XDICTIONARY
360
828C
102
}
330
2
100
AcDbSymbolTableRecord
100
AcDbLayerTableRecord
  2
R-SWTS-DET2
 70
     0
 62
     4
  6
CONTINUOUS
370
    -3
390
7E3B
347
8232
348
0
  0
LAYER
  5
42E
102
{ACAD_XDICTIONARY
360
828E
102
}
330
2
100
AcDbSymbolTableRecord
100
AcDbLayerTableRecord
  2
R-SWTS-DET3
 70
     0
 62
     5
  6
CONTINUOUS
370
    -3
390
7E3B
347
8232
348
0
  0
LAYER
  5
7E37
102
{ACAD_XDICTIONARY
360
8290
102
}
330
2
100
AcDbSymbolTableRecord
100
AcDbLayerTableRecord
  2
PART_NUMBERS
 70
     0
 62
     6
  6
CONTINUOUS
370
    -3
390
7E3B
347
8232
348
0
  0
LAYER
  5
80CF
330
2
100
AcDbSymbolTableRecord
100
AcDbLayerTableRecord
  2
Defpoints
 70
     0
 62
     7
  6
CONTINUOUS
290
     0
370
    -3
390
7E3B
347
8232
348
0
  0
LAYER
  5
874C
330
2
100
AcDbSymbolTableRecord
100
AcDbLayerTableRecord
  2
FORMAT
 70
     0
 62
     7
  6
CONTINUOUS
370
    -3
390
7E3B
347
8232
348
0
1001
AcAecLayerStandard
1000

1000

1001
AcCmTransparency
1071
        0
  0
LAYER
  5
874D
102
{ACAD_XDICTIONARY
360
874E
102
}
330
2
100
AcDbSymbolTableRecord
100
AcDbLayerTableRecord
  2
TEXT
 70
     0
 62
     3
  6
CONTINUOUS
370
    -3
390
7E3B
347
8232
348
0
  0
LAYER
  5
8807
330
2
100
AcDbSymbolTableRecord
100
AcDbLayerTableRecord
  2
Kawneer Logo-English
 70
     0
 62
     7
  6
CONTINUOUS
370
    -3
390
7E3B
347
8232
348
0
1001
AcAecLayerStandard
1000

1000

1001
AcCmTransparency
1071
        0
  0
LAYER
  5
90C2
102
{ACAD_XDICTIONARY
360
90C3
102
}
330
2
100
AcDbSymbolTableRecord
100
AcDbLayerTableRecord
  2
HIDDEN
 70
     0
 62
     3
  6
HIDDEN
370
    -3
390
7E3B
347
8232
348
0
  0
LAYER
  5
90C4
330
2
100
AcDbSymbolTableRecord
100
AcDbLayerTableRecord
  2
CENTER
 70
     0
 62
     1
  6
CENTER
370
    -3
390
7E3B
347
8232
348
0
  0
LAYER
  5
AFB1
102
{ACAD_XDICTIONARY
360
AFB2
102
}
330
2
100
AcDbSymbolTableRecord
100
AcDbLayerTableRecord
  2
R-ANNO-TEXT
 70
     0
 62
     6
  6
CONTINUOUS
370
    -3
390
7E3B
347
8232
348
0
  0
LAYER
  5
AFB3
102
{ACAD_XDICTIONARY
360
AFB4
102
}
330
2
100
AcDbSymbolTableRecord
100
AcDbLayerTableRecord
  2
PHANTOM
 70
     0
 62
     7
  6
PHANTOM
370
    -3
390
7E3B
347
8232
348
0
  0
ENDTAB
  0
TABLE
  2
STYLE
  5
3
330
0
100
AcDbSymbolTable
 70
     1
  0
STYLE
  5
F
330
3
100
AcDbSymbolTableRecord
100
AcDbTextStyleTableRecord
  2
STANDARD
 70
     0
 40
0.0
 41
1.0
 50
0.0
 71
     0
 42
0.25
  3
arial.ttf
  4

1001
ACAD
1000
Arial
1071
       34
  0
ENDTAB
  0
TABLE
  2
VIEW
  5
6
330
0
100
AcDbSymbolTable
 70
     0
  0
ENDTAB
  0
TABLE
  2
UCS
  5
7
330
0
100
AcDbSymbolTable
 70
     0
  0
ENDTAB
  0
TABLE
  2
APPID
  5
9
330
0
100
AcDbSymbolTable
 70
    16
  0
APPID
  5
10
330
9
100
AcDbSymbolTableRecord
100
AcDbRegAppTableRecord
  2
ACAD
 70
     0
  0
APPID
  5
8408
330
9
100
AcDbSymbolTableRecord
100
AcDbRegAppTableRecord
  2
ACAD_NAV_VCDISPLAY
 70
     0
  0
APPID
  5
874F
330
9
100
AcDbSymbolTableRecord
100
AcDbRegAppTableRecord
  2
AcAecLayerStandard
 70
     0
  0
APPID
  5
8750
330
9
100
AcDbSymbolTableRecord
100
AcDbRegAppTableRecord
  2
AcCmTransparency
 70
     0
  0
APPID
  5
8808
330
9
100
AcDbSymbolTableRecord
100
AcDbRegAppTableRecord
  2
ACAD_EXEMPT_FROM_CAD_STANDARDS
 70
     0
  0
APPID
  5
8809
330
9
100
AcDbSymbolTableRecord
100
AcDbRegAppTableRecord
  2
GradientColor1ACI
 70
     0
  0
APPID
  5
880A
330
9
100
AcDbSymbolTableRecord
100
AcDbRegAppTableRecord
  2
GradientColor2ACI
 70
     0
  0
APPID
  5
880B
330
9
100
AcDbSymbolTableRecord
100
AcDbRegAppTableRecord
  2
ACAD_MLEADERVER
 70
     0
  0
APPID
  5
880C
330
9
100
AcDbSymbolTableRecord
100
AcDbRegAppTableRecord
  2
ACAD_PSEXT
 70
     0
  0
APPID
  5
880D
330
9
100
AcDbSymbolTableRecord
100
AcDbRegAppTableRecord
  2
ACAD_DSTYLE_DIMJAG
 70
     0
  0
APPID
  5
880E
330
9
100
AcDbSymbolTableRecord
100
AcDbRegAppTableRecord
  2
ACAD_DSTYLE_DIMTALN
 70
     0
  0
APPID
  5
880F
330
9
100
AcDbSymbolTableRecord
100
AcDbRegAppTableRecord
  2
ACAD_DSTYLE_DIMBREAK
 70
     0
  0
APPID
  5
8810
330
9
100
AcDbSymbolTableRecord
100
AcDbRegAppTableRecord
  2
AcDbDynamicBlockGUID
 70
     0
  0
APPID
  5
8811
330
9
100
AcDbSymbolTableRecord
100
AcDbRegAppTableRecord
  2
ACAUTHENVIRON
 70
     0
  0
APPID
  5
8812
330
9
100
AcDbSymbolTableRecord
100
AcDbRegAppTableRecord
  2
AcDbDynamicBlockTrueName
 70
     0
  0
APPID
  5
90C6
330
9
100
AcDbSymbolTableRecord
100
AcDbRegAppTableRecord
  2
AcDbBlockRepETag
 70
     0
  0
ENDTAB
  0
TABLE
  2
DIMSTYLE
  5
A
330
0
100
AcDbSymbolTable
 70
     3
100
AcDbDimStyleTable
 71
     1
340
26C
  0
DIMSTYLE
105
26C
330
A
100
AcDbSymbolTableRecord
100
AcDbDimStyleTableRecord
  2
STANDARD
 70
     0
340
F
  0
DIMSTYLE
105
8A9E
330
A
100
AcDbSymbolTableRecord
100
AcDbDimStyleTableRecord
  2
EXT_ON-ON
 70
     0
  3
"
  4
mm
 40
2.0
 41
0.125
 42
0.1875
 43
0.1875
 44
0.09
 73
     0
 74
     0
 77
     3
 78
     3
140
0.125
141
0.0
147
0.05
171
     3
179
     2
271
     5
273
     5
274
     3
276
     2
277
     5
284
     3
285
     3
286
     3
289
     0
340
F
  0
DIMSTYLE
105
90C5
330
A
100
AcDbSymbolTableRecord
100
AcDbDimStyleTableRecord
  2
EXT_ON-OFF
 70
     0
  3
"
  4
mm
 40
2.0
 41
0.125
 42
0.1875
 43
0.1875
 44
0.09
 73
     0
 74
     0
 76
     1
 77
     3
 78
     3
140
0.125
141
0.0
147
0.05
171
     3
179
     2
271
     5
273
     5
274
     3
276
     2
277
     5
284
     3
285
     3
286
     3
289
     0
340
F
  0
ENDTAB
  0
TABLE
  2
BLOCK_RECORD
  5
1
330
0
100
AcDbSymbolTable
 70
    45
  0
BLOCK_RECORD
  5
17
102
{ACAD_XDICTIONARY
360
7F24
102
}
330
1
100
AcDbSymbolTableRecord
100
AcDbBlockTableRecord
  2
*MODEL_SPACE
340
7E3E
 70
     0
280
     1
281
     0
  0
BLOCK_RECORD
  5
14
102
{ACAD_XDICTIONARY
360
7F22
102
}
330
1
100
AcDbSymbolTableRecord
100
AcDbBlockTableRecord
  2
*PAPER_SPACE
340
7E3F
 70
     0
280
     1
281
     0
  0
BLOCK_RECORD
  5
8813
102
{ACAD_XDICTIONARY
360
891E
102
}
330
1
100
AcDbSymbolTableRecord
100
AcDbBlockTableRecord
  2
Kawneer Logo English
340
0
102
{BLKREFS
331
B336
102
}
 70
     1
280
     1
281
     0
1001
AcDbDynamicBlockGUID
1000
{C5611A99-2B2A-814B-B086-E1E99B160FE1}
  0
ENDTAB
  0
ENDSEC
  0
SECTION
  2
BLOCKS
  0
BLOCK
  5
3C
330
17
100
AcDbEntity
  8
0
100
AcDbBlockBegin
  2
*MODEL_SPACE
 70
     0
 10
0.0
 20
0.0
 30
0.0
  3
*MODEL_SPACE
  1

  0
ENDBLK
  5
3D
330
17
100
AcDbEntity
  8
0
100
AcDbBlockEnd
  0
BLOCK
  5
3A
330
14
100
AcDbEntity
 67
     1
  8
0
100
AcDbBlockBegin
  2
*PAPER_SPACE
 70
     0
 10
0.0
 20
0.0
 30
0.0
  3
*PAPER_SPACE
  1

  0
ENDBLK
  5
3B
330
14
100
AcDbEntity
 67
     1
  8
0
100
AcDbBlockEnd
  0
BLOCK
  5
881F
330
8813
100
AcDbEntity
  8
0
100
AcDbBlockBegin
  2
Kawneer Logo English
 70
     0
 10
0.0
 20
0.0
 30
0.0
  3
Kawneer Logo English
  1

  0
HATCH
  5
8916
330
8813
100
AcDbEntity
  8
Kawneer Logo-English
100
AcDbHatch
 10
0.0
 20
0.0
 30
0.0
210
0.0
220
0.0
230
1.0
  2
SOLID
 70
     1
 71
     0
 91
        1
 92
        1
 93
       81
 72
     1
 10
0.2706169776412204
 20
0.0336337282279411
 11
0.2687512969786691
 21
0.0350329887248546
 72
     1
 10
0.2687512969786696
 20
0.0350329887248547
 11
0.2633408230572721
 21
0.039137486182467
 72
     1
 10
0.2633408230572729
 20
0.0391374861824669
 11
0.2550385441089194
 21
0.0453875164020133
 72
     1
 10
0.2550385441089191
 20
0.0453875164020132
 11
0.2442175962661241
 21
0.053596511317238
 72
     1
 10
0.2442175962661235
 20
0.0535965113172379
 11
0.2314376837276472
 21
0.0632980507625037
 72
     1
 10
0.2314376837276479
 20
0.0632980507625037
 11
0.2172585106922595
 21
0.0741189986052996
 72
     1
 10
0.2172585106922598
 20
0.0741189986052996
 11
0.2019599292593419
 21
0.0856862187131167
 72
     1
 10
0.201959929259341
 20
0.0856862187131167
 11
0.1862882116939105
 21
0.0976265749534437
 72
     1
 10
0.1862882116939102
 20
0.0976265749534437
 11
0.1706164941284813
 21
0.1095669311937706
 72
     1
 10
0.1706164941284811
 20
0.1095669311937709
 11
0.1553179126955632
 21
0.1211341513015875
 72
     1
 10
0.1553179126955642
 20
0.1211341513015876
 11
0.1411387396601757
 21
0.131955099144384
 72
     1
 10
0.1411387396601755
 20
0.1319550991443839
 11
0.1284521111548274
 21
0.141749922622777
 72
     1
 10
0.1284521111548278
 20
0.1417499226227768
 11
0.117631163312031
 21
0.1499589175380016
 72
     1
 10
0.1176311633120304
 20
0.1499589175380017
 11
0.1094221683968068
 21
0.1563022317906752
 72
     1
 10
0.1094221683968062
 20
0.1563022317906754
 11
0.1041049785085351
 21
0.1604067292482882
 72
     1
 10
0.1041049785085351
 20
0.1604067292482878
 11
0.1023325818791119
 21
0.1618992737783286
 72
     1
 10
0.1023325818791116
 20
0.1618992737783289
 11
0.1043848306079176
 21
0.1636716704077524
 72
     1
 10
0.1043848306079194
 20
0.1636716704077524
 11
0.1100751566286996
 21
0.1683358720641301
 72
     1
 10
0.1100751566286986
 20
0.1683358720641301
 11
0.1189371397758159
 21
0.1757053106812067
 72
     1
 10
0.1189371397758161
 20
0.1757053106812067
 11
0.1304110758505067
 21
0.1851269980270901
 72
     1
 10
0.1304110758505059
 20
0.1851269980270902
 11
0.1439372606540007
 21
0.1963210820023967
 72
     1
 10
0.1439372606540017
 20
0.1963210820023967
 11
0.1589559899875385
 21
0.2087278584083611
 72
     1
 10
0.1589559899875379
 20
0.2087278584083611
 11
0.1750941277186041
 21
0.2220674751456017
 72
     1
 10
0.1750941277186047
 20
0.2220674751456017
 11
0.19169868561531
 21
0.2358735120484796
 72
     1
 10
0.1916986856153105
 20
0.2358735120484796
 11
0.208303243512014
 21
0.2495862649182301
 72
     1
 10
0.2083032435120131
 20
0.2495862649182304
 11
0.2244413812430811
 21
0.2628325976223432
 72
     1
 10
0.2244413812430812
 20
0.2628325976223429
 11
0.239460110576618
 21
0.2753326580614352
 72
     1
 10
0.2394601105766174
 20
0.2753326580614351
 11
0.2529862953801122
 21
0.2864334580036143
 72
     1
 10
0.2529862953801132
 20
0.2864334580036143
 11
0.2643669474216756
 21
0.2958551453494973
 72
     1
 10
0.2643669474216757
 20
0.2958551453494973
 11
0.2731356465356649
 21
0.3031312999334466
 72
     1
 10
0.273135646535664
 20
0.3031312999334466
 11
0.2788259725564443
 21
0.3077955015898243
 72
     1
 10
0.278825972556445
 20
0.3077955015898246
 11
0.2807849372521245
 21
0.3094746141861208
 72
     1
 10
0.2807849372521249
 20
0.3094746141861205
 11
0.2798520969208501
 21
0.3094746141861205
 72
     1
 10
0.2798520969208496
 20
0.3094746141861205
 11
0.2769602918938953
 21
0.3095678982192478
 72
     1
 10
0.2769602918938943
 20
0.3095678982192481
 11
0.2724826583037715
 21
0.3095678982192481
 72
     1
 10
0.2724826583037729
 20
0.3095678982192481
 11
0.2666057642167363
 21
0.3095678982192481
 72
     1
 10
0.266605764216735
 20
0.3095678982192481
 11
0.2597027457652953
 21
0.3095678982192481
 72
     1
 10
0.2597027457652956
 20
0.3095678982192481
 11
0.2519601710157094
 21
0.3095678982192481
 72
     1
 10
0.2519601710157104
 20
0.3095678982192481
 11
0.2437511761004851
 21
0.3095678982192481
 72
     1
 10
0.243751176100484
 20
0.3095678982192481
 11
0.2351690450527495
 21
0.3095678982192481
 72
     1
 10
0.2351690450527495
 20
0.3095678982192481
 11
0.2266801980381413
 21
0.3095678982192481
 72
     1
 10
0.2266801980381423
 20
0.3095678982192481
 11
0.2183779190897905
 21
0.3094746141861208
 72
     1
 10
0.2183779190897899
 20
0.3094746141861205
 11
0.2106353443402037
 21
0.3094746141861205
 72
     1
 10
0.2106353443402029
 20
0.3094746141861205
 11
0.2037323258887632
 21
0.3094746141861205
 72
     1
 10
0.203732325888764
 20
0.3094746141861205
 11
0.1978554318017273
 21
0.3094746141861205
 72
     1
 10
0.1978554318017278
 20
0.3094746141861205
 11
0.1932845141784786
 21
0.3094746141861205
 72
     1
 10
0.1932845141784787
 20
0.3094746141861205
 11
0.1903927091515244
 21
0.3094746141861205
 72
     1
 10
0.1903927091515234
 20
0.3094746141861205
 11
0.1893665847871204
 21
0.3094746141861205
 72
     1
 10
0.1893665847871206
 20
0.3094746141861205
 11
0.1879673242902067
 21
0.3077955015898243
 72
     1
 10
0.1879673242902076
 20
0.3077955015898246
 11
0.1841426789319786
 21
0.3030380159003196
 72
     1
 10
0.1841426789319787
 20
0.3030380159003192
 11
0.1780792167786874
 21
0.29576186131637
 72
     1
 10
0.1780792167786873
 20
0.29576186131637
 11
0.170243357995973
 21
0.2862468899373593
 72
     1
 10
0.170243357995973
 20
0.2862468899373593
 11
0.1610082387163447
 21
0.2750528059620528
 72
     1
 10
0.1610082387163438
 20
0.2750528059620528
 11
0.1507469950723126
 21
0.2624594614898328
 72
     1
 10
0.1507469950723133
 20
0.2624594614898328
 11
0.1396461951301336
 21
0.2491198447525922
 72
     1
 10
0.1396461951301333
 20
0.2491198447525922
 11
0.1282655430885727
 21
0.2352205238165866
 72
     1
 10
0.1282655430885726
 20
0.2352205238165868
 11
0.1168848910470102
 21
0.2214144869137089
 72
     1
 10
0.1168848910470102
 20
0.2214144869137087
 11
0.1058773751379587
 21
0.2079815861433408
 72
     1
 10
0.105877375137958
 20
0.2079815861433408
 11
0.0955228474608004
 21
0.1954815257042486
 72
     1
 10
0.0955228474608019
 20
0.1954815257042488
 11
0.0862877281811736
 21
0.1842874417289424
 72
     1
 10
0.0862877281811727
 20
0.1842874417289424
 11
0.0784518693984583
 21
0.1747724703499316
 72
     1
 10
0.0784518693984584
 20
0.1747724703499314
 11
0.0723884072451672
 21
0.1674963157659821
 72
     1
 10
0.0723884072451671
 20
0.1674963157659822
 11
0.0685637618869363
 21
0.1627388300764767
 72
     1
 10
0.0685637618869364
 20
0.1627388300764767
 11
0.0671645013900242
 21
0.1611530015133082
 72
     1
 10
0.0671645013900251
 20
0.1611530015133082
 11
0.0680040576881734
 21
0.1596604569832674
 72
     1
 10
0.0680040576881726
 20
0.1596604569832674
 11
0.0704294425494878
 21
0.1556492435587824
 72
     1
 10
0.0704294425494871
 20
0.1556492435587824
 11
0.0742540879077179
 21
0.1493059293061089
 72
     1
 10
0.0742540879077192
 20
0.1493059293061089
 11
0.0791048576303511
 21
0.1411902184240116
 72
     1
 10
0.0791048576303508
 20
0.1411902184240116
 11
0.0848884676842594
 21
0.1314886789787458
 72
     1
 10
0.0848884676842596
 20
0.1314886789787459
 11
0.0913250659700619
 21
0.1207610151690772
 72
     1
 10
0.0913250659700613
 20
0.1207610151690775
 11
0.0982280844214992
 21
0.1091937950612604
 72
     1
 10
0.0982280844214985
 20
0.1091937950612603
 11
0.1053176709391927
 21
0.0973467228540611
 72
     1
 10
0.105317670939193
 20
0.0973467228540612
 11
0.1124072574568872
 21
0.0854996506468619
 72
     1
 10
0.1124072574568871
 20
0.0854996506468617
 11
0.1193102759083267
 21
0.0739324305390446
 72
     1
 10
0.1193102759083278
 20
0.0739324305390448
 11
0.1257468741941283
 21
0.0632047667293762
 72
     1
 10
0.1257468741941277
 20
0.063204766729376
 11
0.1315304842480362
 21
0.0535032272841102
 72
     1
 10
0.1315304842480365
 20
0.0535032272841104
 11
0.1363812539706702
 21
0.0453875164020132
 72
     1
 10
0.1363812539706699
 20
0.0453875164020132
 11
0.1402058993288989
 21
0.0391374861824667
 72
     1
 10
0.1402058993288988
 20
0.0391374861824669
 11
0.1426312841902157
 21
0.0350329887248546
 72
     1
 10
0.1426312841902164
 20
0.0350329887248547
 11
0.1434708404883648
 21
0.0336337282279412
 72
     1
 10
0.143470840488364
 20
0.0336337282279411
 11
0.2706169776412211
 21
0.0336337282279411
 97
        0
 75
     0
 76
     1
 98
        1
 10
-0.3743130907707726
 20
-0.2500502867693841
450
        0
451
        0
460
0.0
461
0.0
452
        0
462
0.0
453
        0
470

1001
ACAD
1010
0.0
1020
0.0
1030
0.0
  0
HATCH
  5
8917
330
8813
100
AcDbEntity
  8
Kawneer Logo-English
100
AcDbHatch
 10
0.0
 20
0.0
 30
0.0
210
0.0
220
0.0
230
1.0
  2
SOLID
 70
     1
 71
     0
 91
        1
 92
        1
 93
       18
 72
     1
 10
0.0001865656044393
 20
0.2563959993365415
 11
-0.0000000024618153
 21
0.113671428651383
 72
     1
 10
-0.0000000024618159
 20
0.1136714286513832
 11
0.0012126899688416
 21
0.1152572572145516
 72
     1
 10
0.0012126899688421
 20
0.1152572572145516
 11
0.0045709151614355
 21
0.1197348908046738
 72
     1
 10
0.004570915161435
 20
0.119734890804674
 11
0.0098881050497044
 21
0.1268244773223682
 72
     1
 10
0.0098881050497044
 20
0.1268244773223682
 11
0.0166978394680158
 21
0.1359663125688683
 72
     1
 10
0.016697839468016
 20
0.1359663125688683
 11
0.0248135503501131
 21
0.1467872604116651
 72
     1
 10
0.024813550350113
 20
0.1467872604116652
 11
0.0338621015634867
 21
0.1588209006851195
 72
     1
 10
0.0338621015634872
 20
0.1588209006851194
 11
0.0434703569756247
 21
0.1716940972567221
 72
     1
 10
0.0434703569756247
 20
0.1716940972567224
 11
0.0534517485202732
 21
0.1850337139939626
 72
     1
 10
0.0534517485202724
 20
0.1850337139939624
 11
0.0634331400649208
 21
0.1983733307312025
 72
     1
 10
0.0634331400649222
 20
0.1983733307312024
 11
0.0730413954770597
 21
0.2112465273028051
 72
     1
 10
0.0730413954770595
 20
0.2112465273028053
 11
0.0820899466904331
 21
0.2233734516093873
 72
     1
 10
0.0820899466904321
 20
0.2233734516093873
 11
0.0902056575725293
 21
0.2341943994521837
 72
     1
 10
0.0902056575725308
 20
0.2341943994521837
 11
0.0970153919908422
 21
0.2433362346986839
 72
     1
 10
0.0970153919908405
 20
0.2433362346986839
 11
0.1022392978459834
 21
0.2503325371832507
 72
     1
 10
0.1022392978459843
 20
0.2503325371832508
 11
0.1056908070717041
 21
0.2549034548065008
 72
     1
 10
0.1056908070717046
 20
0.254903454806501
 11
0.1069034995023621
 21
0.2564892833696694
 72
     1
 10
0.1069034995023625
 20
0.2564892833696695
 11
0.0001865656044399
 21
0.2563959993365418
 97
        0
 75
     0
 76
     1
 98
        1
 10
-0.3743130907707726
 20
-0.2500502867693841
450
        0
451
        0
460
0.0
461
0.0
452
        0
462
0.0
453
        0
470

1001
ACAD
1010
0.0
1020
0.0
1030
0.0
  0
HATCH
  5
8918
330
8813
100
AcDbEntity
  8
Kawneer Logo-English
100
AcDbHatch
 10
0.0
 20
0.0
 30
0.0
210
0.0
220
0.0
230
1.0
  2
SOLID
 70
     1
 71
     0
 91
        2
 92
       16
 93
       76
 72
     1
 10
1.358402087941634
 20
0.1650709309046659
 11
1.358402087941634
 21
0.16796273593162
 72
     1
 10
1.358402087941634
 20
0.1679627359316202
 11
1.358402087941634
 21
0.1729067896873803
 72
     1
 10
1.358402087941634
 20
0.1729067896873803
 11
1.358402087941634
 21
0.1791568199069267
 72
     1
 10
1.358402087941634
 20
0.1791568199069267
 11
1.358402087941634
 21
0.1861531223914932
 72
     1
 10
1.358402087941634
 20
0.186153122391493
 11
1.358402087941634
 21
0.1931494248760595
 72
     1
 10
1.358402087941634
 20
0.1931494248760596
 11
1.358402087941634
 21
0.1994927391287338
 72
     1
 10
1.358402087941634
 20
0.1994927391287336
 11
1.358402087941634
 21
0.2044367928844937
 72
     1
 10
1.358402087941634
 20
0.2044367928844937
 11
1.358402087941634
 21
0.2072353138783208
 72
     1
 10
1.358402087941634
 20
0.2072353138783208
 11
1.359894632471676
 21
0.2072353138783208
 72
     1
 10
1.359894632471676
 20
0.2072353138783208
 11
1.362693153465502
 21
0.2072353138783208
 72
     1
 10
1.362693153465502
 20
0.2072353138783208
 11
1.366424514790605
 21
0.2072353138783208
 72
     1
 10
1.366424514790606
 20
0.2072353138783208
 11
1.371088716446983
 21
0.2072353138783208
 72
     1
 10
1.371088716446982
 20
0.2072353138783208
 11
1.376405906335254
 21
0.2072353138783208
 72
     1
 10
1.376405906335254
 20
0.2072353138783208
 11
1.382282800422289
 21
0.2072353138783208
 72
     1
 10
1.38228280042229
 20
0.2072353138783208
 11
1.388346262575581
 21
0.2072353138783208
 72
     1
 10
1.388346262575579
 20
0.2072353138783208
 11
1.394596292795125
 21
0.2072353138783208
 72
     1
 10
1.394596292795125
 20
0.2072353138783208
 11
1.400753038981545
 21
0.2072353138783208
 72
     1
 10
1.400753038981546
 20
0.2072353138783208
 11
1.406723217101709
 21
0.2072353138783208
 72
     1
 10
1.406723217101708
 20
0.2072353138783208
 11
1.412320259089362
 21
0.2072353138783208
 72
     1
 10
1.412320259089362
 20
0.2072353138783208
 11
1.417264312845122
 21
0.2072353138783208
 72
     1
 10
1.417264312845123
 20
0.2072353138783208
 11
1.421368810302735
 21
0.2072353138783208
 72
     1
 10
1.421368810302734
 20
0.2072353138783208
 11
1.424540467429071
 21
0.2072353138783208
 72
     1
 10
1.424540467429072
 20
0.2072353138783208
 11
1.426592716157878
 21
0.2072353138783208
 72
     1
 10
1.426592716157878
 20
0.2072353138783208
 11
1.427338988422898
 21
0.2072353138783208
 72
     1
 10
1.427338988422898
 20
0.2072353138783208
 11
1.430977065714873
 21
0.207142029845193
 72
     1
 10
1.430977065714872
 20
0.207142029845193
 11
1.434335290907465
 21
0.2068621777458102
 72
     1
 10
1.434335290907465
 20
0.2068621777458102
 11
1.435921119470633
 21
0.2066756096795552
 72
     1
 10
1.435921119470633
 20
0.206675609679555
 11
1.437413664000673
 21
0.2063957575801723
 72
     1
 10
1.437413664000674
 20
0.2063957575801723
 11
1.438906208530714
 21
0.2061159054807895
 72
     1
 10
1.438906208530714
 20
0.2061159054807898
 11
1.440398753060756
 21
0.2056494853151523
 72
     1
 10
1.440398753060756
 20
0.2056494853151521
 11
1.441704729524542
 21
0.2050897811163865
 72
     1
 10
1.441704729524542
 20
0.2050897811163866
 11
1.443010705988328
 21
0.204530076917621
 72
     1
 10
1.443010705988329
 20
0.204530076917621
 11
1.444223398418986
 21
0.2036905206194736
 72
     1
 10
1.444223398418985
 20
0.2036905206194736
 11
1.445436090849643
 21
0.2028509643213252
 72
     1
 10
1.445436090849643
 20
0.2028509643213252
 11
1.446555499247174
 21
0.2018248399569224
 72
     1
 10
1.446555499247173
 20
0.2018248399569223
 11
1.447581623611576
 21
0.2007054315593917
 72
     1
 10
1.447581623611578
 20
0.2007054315593915
 11
1.448607747975981
 21
0.1993061710624781
 72
     1
 10
1.448607747975981
 20
0.1993061710624781
 11
1.449540588307258
 21
0.1978136265324374
 72
     1
 10
1.449540588307256
 20
0.1978136265324373
 11
1.450380144605403
 21
0.1961345139361415
 72
     1
 10
1.450380144605404
 20
0.1961345139361415
 11
1.451126416870426
 21
0.1944554013398453
 72
     1
 10
1.451126416870426
 20
0.1944554013398454
 11
1.451592837036063
 21
0.1929628568098046
 72
     1
 10
1.451592837036062
 20
0.1929628568098046
 11
1.451965973168573
 21
0.1913770282466361
 72
     1
 10
1.451965973168574
 20
0.1913770282466361
 11
1.452245825267955
 21
0.1899777677497231
 72
     1
 10
1.452245825267954
 20
0.1899777677497231
 11
1.452432393334211
 21
0.188671791285937
 72
     1
 10
1.452432393334211
 20
0.1886717912859369
 11
1.452432393334211
 21
0.1874590988552789
 72
     1
 10
1.452432393334211
 20
0.1874590988552789
 11
1.452525677367338
 21
0.1863396904577482
 72
     1
 10
1.452525677367337
 20
0.1863396904577481
 11
1.452432393334211
 21
0.1844740097951972
 72
     1
 10
1.452432393334211
 20
0.1844740097951974
 11
1.452245825267955
 21
0.1827948971989012
 72
     1
 10
1.452245825267954
 20
0.1827948971989009
 11
1.451872689135445
 21
0.1810225005694773
 72
     1
 10
1.451872689135446
 20
0.1810225005694774
 11
1.451406268969809
 21
0.1794366720063093
 72
     1
 10
1.451406268969809
 20
0.1794366720063094
 11
1.450846564771043
 21
0.1779441274762682
 72
     1
 10
1.450846564771041
 20
0.1779441274762681
 11
1.450100292506021
 21
0.1764515829462274
 72
     1
 10
1.450100292506023
 20
0.1764515829462275
 11
1.449260736207875
 21
0.1750523224493141
 72
     1
 10
1.449260736207873
 20
0.1750523224493139
 11
1.448327895876597
 21
0.1737463459855283
 72
     1
 10
1.448327895876596
 20
0.1737463459855281
 11
1.44702191941281
 21
0.1723470854886151
 72
     1
 10
1.447021919412811
 20
0.1723470854886151
 11
1.445715942949025
 21
0.1711343930579568
 72
     1
 10
1.445715942949026
 20
0.1711343930579568
 11
1.444316682452114
 21
0.1700149846604262
 72
     1
 10
1.444316682452114
 20
0.1700149846604259
 11
1.442824137922072
 21
0.168988860296023
 72
     1
 10
1.442824137922072
 20
0.168988860296023
 11
1.441238309358904
 21
0.1682425880310024
 72
     1
 10
1.441238309358902
 20
0.1682425880310024
 11
1.439559196762608
 21
0.1674963157659821
 72
     1
 10
1.439559196762608
 20
0.1674963157659822
 11
1.437880084166311
 21
0.1669366115672166
 72
     1
 10
1.437880084166311
 20
0.1669366115672167
 11
1.436107687536888
 21
0.1664701914015788
 72
     1
 10
1.436107687536888
 20
0.1664701914015789
 11
1.434242006874337
 21
0.166003771235941
 72
     1
 10
1.434242006874337
 20
0.1660037712359412
 11
1.432376326211786
 21
0.1657239191365588
 72
     1
 10
1.432376326211785
 20
0.1657239191365585
 11
1.430417361516107
 21
0.1655373510703035
 72
     1
 10
1.430417361516108
 20
0.1655373510703037
 11
1.428458396820429
 21
0.1653507830040482
 72
     1
 10
1.428458396820428
 20
0.1653507830040482
 11
1.424353899362817
 21
0.1651642149377932
 72
     1
 10
1.424353899362817
 20
0.1651642149377932
 11
1.420156117872077
 21
0.1650709309046658
 72
     1
 10
1.420156117872076
 20
0.1650709309046659
 11
1.41773073301076
 21
0.1650709309046659
 72
     1
 10
1.417730733010761
 20
0.1650709309046659
 11
1.411107566658704
 21
0.1650709309046659
 72
     1
 10
1.411107566658702
 20
0.1650709309046659
 11
1.401779163345947
 21
0.1650709309046659
 72
     1
 10
1.401779163345949
 20
0.1650709309046659
 11
1.390958215503152
 21
0.1650709309046659
 72
     1
 10
1.390958215503152
 20
0.1650709309046659
 11
1.379950699594101
 21
0.1650709309046659
 72
     1
 10
1.379950699594099
 20
0.1650709309046659
 11
1.369969308049451
 21
0.1650709309046659
 72
     1
 10
1.369969308049451
 20
0.1650709309046659
 11
1.362320017332992
 21
0.1650709309046659
 72
     1
 10
1.362320017332992
 20
0.1650709309046659
 11
1.358402087941635
 21
0.1650709309046659
 97
        0
 92
        1
 93
      107
 72
     1
 10
1.443756978253348
 20
0.1485596570410883
 11
1.446928635379685
 21
0.1492126452729816
 72
     1
 10
1.446928635379685
 20
0.1492126452729817
 11
1.449540588307256
 21
0.1498656335048746
 72
     1
 10
1.449540588307256
 20
0.1498656335048745
 11
1.451872689135445
 21
0.1506119057698948
 72
     1
 10
1.451872689135446
 20
0.1506119057698946
 11
1.45401822189738
 21
0.1514514620680426
 72
     1
 10
1.45401822189738
 20
0.1514514620680425
 11
1.455883902559929
 21
0.1521977343330632
 72
     1
 10
1.455883902559929
 20
0.1521977343330631
 11
1.457563015156225
 21
0.1530372906312111
 72
     1
 10
1.457563015156225
 20
0.1530372906312111
 11
1.459148843719394
 21
0.1539701309624869
 72
     1
 10
1.459148843719394
 20
0.1539701309624866
 11
1.460641388249434
 21
0.1549029712937624
 72
     1
 10
1.460641388249434
 20
0.1549029712937622
 11
1.462133932779476
 21
0.155835811625038
 72
     1
 10
1.462133932779476
 20
0.155835811625038
 11
1.463439909243262
 21
0.1568619359894408
 72
     1
 10
1.463439909243262
 20
0.1568619359894408
 11
1.464745885707048
 21
0.1579813443869714
 72
     1
 10
1.464745885707047
 20
0.1579813443869716
 11
1.465865294104579
 21
0.1591007527845022
 72
     1
 10
1.465865294104579
 20
0.1591007527845025
 11
1.466984702502109
 21
0.1602201611820331
 72
     1
 10
1.466984702502108
 20
0.1602201611820328
 11
1.468010826866511
 21
0.1613395695795634
 72
     1
 10
1.468010826866511
 20
0.1613395695795637
 11
1.468943667197788
 21
0.1625522620102216
 72
     1
 10
1.468943667197788
 20
0.1625522620102216
 11
1.469876507529063
 21
0.1636716704077522
 72
     1
 10
1.469876507529063
 20
0.1636716704077524
 11
1.470622779794084
 21
0.1648843628384107
 72
     1
 10
1.470622779794084
 20
0.1648843628384107
 11
1.471462336092232
 21
0.1661903393021964
 72
     1
 10
1.471462336092232
 20
0.1661903393021967
 11
1.472115324324125
 21
0.1674030317328546
 72
     1
 10
1.472115324324124
 20
0.1674030317328546
 11
1.472768312556016
 21
0.1686157241635125
 72
     1
 10
1.472768312556017
 20
0.1686157241635125
 11
1.473328016754783
 21
0.1699217006272986
 72
     1
 10
1.473328016754782
 20
0.1699217006272989
 11
1.47379443692042
 21
0.1711343930579568
 72
     1
 10
1.47379443692042
 20
0.1711343930579568
 11
1.474260857086057
 21
0.1724403695217425
 72
     1
 10
1.474260857086058
 20
0.1724403695217424
 11
1.474727277251697
 21
0.1736530619524008
 72
     1
 10
1.474727277251697
 20
0.173653061952401
 11
1.475380265483589
 21
0.1760784468137175
 72
     1
 10
1.475380265483588
 20
0.1760784468137173
 11
1.475846685649225
 21
0.1785038316750338
 72
     1
 10
1.475846685649226
 20
0.1785038316750335
 11
1.476219821781737
 21
0.1808359325032223
 72
     1
 10
1.476219821781738
 20
0.1808359325032223
 11
1.47649967388112
 21
0.1830747492982838
 72
     1
 10
1.47649967388112
 20
0.1830747492982838
 11
1.476592957914248
 21
0.1851269980270901
 72
     1
 10
1.476592957914248
 20
0.1851269980270902
 11
1.476686241947374
 21
0.1870859627227688
 72
     1
 10
1.476686241947375
 20
0.1870859627227687
 11
1.476592957914249
 21
0.1888583593521923
 72
     1
 10
1.476592957914248
 20
0.1888583593521922
 11
1.476499673881119
 21
0.1906307559816158
 72
     1
 10
1.47649967388112
 20
0.1906307559816159
 11
1.476406389847991
 21
0.1924031526110394
 72
     1
 10
1.476406389847991
 20
0.1924031526110394
 11
1.476126537748608
 21
0.1940822652073352
 72
     1
 10
1.476126537748608
 20
0.1940822652073352
 11
1.475846685649226
 21
0.195761377803631
 72
     1
 10
1.475846685649226
 20
0.1957613778036309
 11
1.475566833549843
 21
0.1974404903999272
 72
     1
 10
1.475566833549843
 20
0.1974404903999272
 11
1.475100413384206
 21
0.1990263189630953
 72
     1
 10
1.475100413384205
 20
0.1990263189630952
 11
1.474633993218568
 21
0.2006121475262637
 72
     1
 10
1.474633993218568
 20
0.2006121475262639
 11
1.47416757305293
 21
0.2021046920563051
 72
     1
 10
1.474167573052932
 20
0.2021046920563049
 11
1.473514584821038
 21
0.2035972365863457
 72
     1
 10
1.473514584821037
 20
0.2035972365863459
 11
1.472954880622271
 21
0.2050897811163867
 72
     1
 10
1.472954880622272
 20
0.2050897811163866
 11
1.472208608357252
 21
0.2064890416133
 72
     1
 10
1.472208608357252
 20
0.2064890416133001
 11
1.471462336092232
 21
0.2078883021102135
 72
     1
 10
1.471462336092232
 20
0.2078883021102136
 11
1.470622779794083
 21
0.2091942785739993
 72
     1
 10
1.470622779794084
 20
0.2091942785739991
 11
1.469783223495935
 21
0.2105002550377848
 72
     1
 10
1.469783223495934
 20
0.2105002550377851
 11
1.468850383164659
 21
0.2118062315015707
 72
     1
 10
1.468850383164661
 20
0.2118062315015709
 11
1.467917542833386
 21
0.2130189239322288
 72
     1
 10
1.467917542833385
 20
0.2130189239322289
 11
1.466891418468982
 21
0.2141383323297595
 72
     1
 10
1.466891418468982
 20
0.2141383323297595
 11
1.465772010071451
 21
0.2153510247604178
 72
     1
 10
1.46577201007145
 20
0.215351024760418
 11
1.464652601673919
 21
0.2163771491248209
 72
     1
 10
1.46465260167392
 20
0.2163771491248209
 11
1.463533193276389
 21
0.2174032734892238
 72
     1
 10
1.463533193276389
 20
0.2174032734892238
 11
1.462227216812603
 21
0.2184293978536266
 72
     1
 10
1.462227216812602
 20
0.2184293978536266
 11
1.461014524381945
 21
0.2193622381849024
 72
     1
 10
1.461014524381946
 20
0.2193622381849023
 11
1.459615263885032
 21
0.2202950785161781
 72
     1
 10
1.459615263885031
 20
0.2202950785161782
 11
1.458309287421245
 21
0.2211346348143262
 72
     1
 10
1.458309287421246
 20
0.221134634814326
 11
1.456816742891206
 21
0.221974191112474
 72
     1
 10
1.456816742891206
 20
0.2219741911124738
 11
1.455417482394292
 21
0.2227204633774945
 72
     1
 10
1.455417482394291
 20
0.2227204633774944
 11
1.453831653831122
 21
0.2233734516093874
 72
     1
 10
1.453831653831123
 20
0.2233734516093873
 11
1.452339109301082
 21
0.2240264398412803
 72
     1
 10
1.452339109301082
 20
0.2240264398412803
 11
1.450659996704785
 21
0.2245861440400459
 72
     1
 10
1.450659996704787
 20
0.2245861440400457
 11
1.44907416814162
 21
0.2251458482388108
 72
     1
 10
1.449074168141619
 20
0.2251458482388109
 11
1.447301771512194
 21
0.2256122684044489
 72
     1
 10
1.447301771512194
 20
0.2256122684044488
 11
1.445249522783388
 21
0.2261719726032139
 72
     1
 10
1.445249522783388
 20
0.226171972603214
 11
1.44329055808771
 21
0.2265451087357246
 72
     1
 10
1.443290558087712
 20
0.2265451087357244
 11
1.441145025325778
 21
0.2269182448682345
 72
     1
 10
1.441145025325776
 20
0.2269182448682345
 11
1.438906208530714
 21
0.2271980969676173
 72
     1
 10
1.438906208530714
 20
0.2271980969676173
 11
1.436387539636271
 21
0.2273846650338724
 72
     1
 10
1.436387539636271
 20
0.2273846650338724
 11
1.433495734609316
 21
0.2275712331001274
 72
     1
 10
1.433495734609317
 20
0.2275712331001274
 11
1.430044225383597
 21
0.2276645171332552
 72
     1
 10
1.430044225383597
 20
0.2276645171332549
 11
1.42612629599224
 21
0.2277578011663822
 72
     1
 10
1.42612629599224
 20
0.2277578011663825
 11
1.426033011959112
 21
0.2277578011663825
 72
     1
 10
1.426033011959111
 20
0.2277578011663825
 11
1.33489451159349
 21
0.2277578011663825
 72
     1
 10
1.334894511593491
 20
0.2277578011663825
 11
1.334894511593491
 21
0.0926825211976832
 72
     1
 10
1.334894511593491
 20
0.0926825211976832
 11
1.358588656007891
 21
0.0926825211976832
 72
     1
 10
1.358588656007891
 20
0.0926825211976832
 11
1.358588656007891
 21
0.0947347699264896
 72
     1
 10
1.358588656007891
 20
0.0947347699264896
 11
1.358588656007891
 21
0.1001452438478876
 72
     1
 10
1.358588656007891
 20
0.1001452438478875
 11
1.358588656007891
 21
0.1079811026306024
 72
     1
 10
1.358588656007891
 20
0.1079811026306024
 11
1.358588656007891
 21
0.1170296538439752
 72
     1
 10
1.358588656007891
 20
0.1170296538439753
 11
1.358588656007891
 21
0.1262647731236032
 72
     1
 10
1.358588656007891
 20
0.1262647731236031
 11
1.358588656007891
 21
0.1347536201382103
 72
     1
 10
1.358588656007891
 20
0.1347536201382104
 11
1.358588656007891
 21
0.1412835024571394
 72
     1
 10
1.358588656007891
 20
0.1412835024571393
 11
1.358588656007891
 21
0.1448282957159864
 72
     1
 10
1.358588656007891
 20
0.1448282957159865
 11
1.362320017332992
 21
0.1448282957159865
 72
     1
 10
1.362320017332992
 20
0.1448282957159865
 11
1.369409603850688
 21
0.1448282957159865
 72
     1
 10
1.369409603850688
 20
0.1448282957159865
 11
1.378738007163443
 21
0.1448282957159865
 72
     1
 10
1.378738007163443
 20
0.1448282957159865
 11
1.388999250807475
 21
0.1448282957159865
 72
     1
 10
1.388999250807473
 20
0.1448282957159865
 11
1.399260494451505
 21
0.1448282957159865
 72
     1
 10
1.399260494451506
 20
0.1448282957159865
 11
1.408215761631749
 21
0.1448282957159865
 72
     1
 10
1.408215761631748
 20
0.1448282957159865
 11
1.414745643950677
 21
0.1448282957159865
 72
     1
 10
1.414745643950678
 20
0.1448282957159865
 11
1.41773073301076
 21
0.1448282957159865
 72
     1
 10
1.417730733010761
 20
0.1448282957159865
 11
1.420062833838949
 21
0.1420297747221594
 72
     1
 10
1.420062833838949
 20
0.1420297747221597
 11
1.425193455660966
 21
0.1359663125688683
 72
     1
 10
1.425193455660965
 20
0.1359663125688683
 11
1.432283042178659
 21
0.1275707495873888
 72
     1
 10
1.432283042178659
 20
0.1275707495873886
 11
1.440305469027628
 21
0.1180557782083779
 72
     1
 10
1.440305469027629
 20
0.1180557782083781
 11
1.448234611843471
 21
0.1087273748956225
 72
     1
 10
1.448234611843471
 20
0.1087273748956225
 11
1.455044346261782
 21
0.1006116640135252
 72
     1
 10
1.455044346261782
 20
0.1006116640135252
 11
1.459895115984414
 21
0.0948280539596167
 72
     1
 10
1.459895115984414
 20
0.0948280539596169
 11
1.461760796646965
 21
0.0926825211976832
 72
     1
 10
1.461760796646967
 20
0.0926825211976832
 11
1.49254452757906
 21
0.0926825211976832
 72
     1
 10
1.492544527579059
 20
0.0926825211976832
 11
1.490678846916508
 21
0.0948280539596169
 72
     1
 10
1.490678846916508
 20
0.0948280539596169
 11
1.48564150912762
 21
0.100518379980398
 72
     1
 10
1.48564150912762
 20
0.1005183799803981
 11
1.478458638576797
 21
0.1088206589287502
 72
     1
 10
1.478458638576798
 20
0.1088206589287502
 11
1.470063075595318
 21
0.1183356303077609
 72
     1
 10
1.470063075595317
 20
0.118335630307761
 11
1.461480944547582
 21
0.1282237378192818
 72
     1
 10
1.461480944547582
 20
0.1282237378192818
 11
1.453551801731739
 21
0.1372722890326546
 72
     1
 10
1.45355180173174
 20
0.1372722890326546
 11
1.447395055545323
 21
0.1444551595834761
 72
     1
 10
1.447395055545323
 20
0.1444551595834759
 11
1.443756978253349
 21
0.1485596570410882
 97
        0
 75
     0
 76
     1
 98
        1
 10
-0.3743130907707726
 20
-0.2500502867693841
450
        0
451
        0
460
0.0
461
0.0
452
        0
462
0.0
453
        0
470

1001
ACAD
1010
0.0
1020
0.0
1030
0.0
  0
HATCH
  5
8919
330
8813
100
AcDbEntity
  8
Kawneer Logo-English
100
AcDbHatch
 10
0.0
 20
0.0
 30
0.0
210
0.0
220
0.0
230
1.0
  2
SOLID
 70
     1
 71
     0
 91
        1
 92
        1
 93
       87
 72
     1
 10
1.205602841678699
 20
0.1525708704655737
 11
1.207468522341251
 21
0.1525708704655737
 72
     1
 10
1.207468522341252
 20
0.1525708704655737
 11
1.211199883666355
 21
0.1525708704655737
 72
     1
 10
1.211199883666355
 20
0.1525708704655737
 11
1.216517073554626
 21
0.1525708704655737
 72
     1
 10
1.216517073554626
 20
0.1525708704655737
 11
1.223046955873555
 21
0.1525708704655737
 72
     1
 10
1.223046955873553
 20
0.1525708704655737
 11
1.230602962556885
 21
0.1525708704655737
 72
     1
 10
1.230602962556885
 20
0.1525708704655737
 11
1.238998525538365
 21
0.1525708704655737
 72
     1
 10
1.238998525538365
 20
0.1525708704655737
 11
1.247767224652354
 21
0.1525708704655737
 72
     1
 10
1.247767224652355
 20
0.1525708704655737
 11
1.256815775865728
 21
0.1525708704655737
 72
     1
 10
1.256815775865729
 20
0.1525708704655737
 11
1.265771043045974
 21
0.1525708704655737
 72
     1
 10
1.265771043045973
 20
0.1525708704655737
 11
1.274446458126836
 21
0.1525708704655737
 72
     1
 10
1.274446458126837
 20
0.1525708704655737
 11
1.282562169008935
 21
0.1525708704655737
 72
     1
 10
1.282562169008935
 20
0.1525708704655737
 11
1.289745039559756
 21
0.1525708704655737
 72
     1
 10
1.289745039559755
 20
0.1525708704655737
 11
1.295808501713046
 21
0.1525708704655737
 72
     1
 10
1.295808501713046
 20
0.1525708704655737
 11
1.300472703369423
 21
0.1525708704655737
 72
     1
 10
1.300472703369423
 20
0.1525708704655737
 11
1.303457792429505
 21
0.1525708704655737
 72
     1
 10
1.303457792429505
 20
0.1525708704655737
 11
1.304483916793908
 21
0.1525708704655737
 72
     1
 10
1.304483916793908
 20
0.1525708704655737
 11
1.304483916793908
 21
0.1730000737205081
 72
     1
 10
1.304483916793908
 20
0.1730000737205078
 11
1.303457792429505
 21
0.1730000737205078
 72
     1
 10
1.303457792429505
 20
0.1730000737205078
 11
1.300472703369423
 21
0.1730000737205078
 72
     1
 10
1.300472703369423
 20
0.1730000737205078
 11
1.295808501713045
 21
0.1730000737205078
 72
     1
 10
1.295808501713046
 20
0.1730000737205078
 11
1.289745039559754
 21
0.1730000737205078
 72
     1
 10
1.289745039559755
 20
0.1730000737205078
 11
1.282562169008934
 21
0.1730000737205078
 72
     1
 10
1.282562169008935
 20
0.1730000737205078
 11
1.274446458126837
 21
0.1730000737205078
 72
     1
 10
1.274446458126837
 20
0.1730000737205078
 11
1.265771043045975
 21
0.1730000737205078
 72
     1
 10
1.265771043045973
 20
0.1730000737205078
 11
1.256815775865728
 21
0.1730000737205078
 72
     1
 10
1.256815775865729
 20
0.1730000737205078
 11
1.247767224652355
 21
0.1730000737205078
 72
     1
 10
1.247767224652355
 20
0.1730000737205078
 11
1.238998525538365
 21
0.1730000737205078
 72
     1
 10
1.238998525538365
 20
0.1730000737205078
 11
1.230602962556885
 21
0.1730000737205078
 72
     1
 10
1.230602962556885
 20
0.1730000737205078
 11
1.223046955873553
 21
0.1730000737205078
 72
     1
 10
1.223046955873553
 20
0.1730000737205078
 11
1.216517073554625
 21
0.1730000737205078
 72
     1
 10
1.216517073554626
 20
0.1730000737205078
 11
1.211199883666355
 21
0.1730000737205078
 72
     1
 10
1.211199883666355
 20
0.1730000737205078
 11
1.207468522341252
 21
0.1730000737205078
 72
     1
 10
1.207468522341252
 20
0.1730000737205078
 11
1.205602841678701
 21
0.1730000737205078
 72
     1
 10
1.205602841678699
 20
0.1730000737205078
 11
1.205602841678699
 21
0.1754254585818243
 72
     1
 10
1.205602841678699
 20
0.1754254585818245
 11
1.205602841678699
 21
0.1794366720063095
 72
     1
 10
1.205602841678699
 20
0.1794366720063094
 11
1.205602841678699
 21
0.1843807257620694
 72
     1
 10
1.205602841678699
 20
0.1843807257620694
 11
1.205602841678699
 21
0.1898844837165951
 72
     1
 10
1.205602841678699
 20
0.1898844837165951
 11
1.205602841678699
 21
0.1952949576379935
 72
     1
 10
1.205602841678699
 20
0.1952949576379937
 11
1.205602841678699
 21
0.2003322954268815
 72
     1
 10
1.205602841678699
 20
0.2003322954268814
 11
1.205602841678699
 21
0.2042502248182386
 72
     1
 10
1.205602841678699
 20
0.2042502248182386
 11
1.205602841678699
 21
0.206675609679555
 72
     1
 10
1.205602841678699
 20
0.206675609679555
 11
1.207468522341251
 21
0.206675609679555
 72
     1
 10
1.207468522341252
 20
0.206675609679555
 11
1.211293167699483
 21
0.206675609679555
 72
     1
 10
1.211293167699483
 20
0.206675609679555
 11
1.21670364162088
 21
0.206675609679555
 72
     1
 10
1.216703641620879
 20
0.206675609679555
 11
1.223420092006063
 21
0.206675609679555
 72
     1
 10
1.223420092006064
 20
0.206675609679555
 11
1.231255950788778
 21
0.206675609679555
 72
     1
 10
1.231255950788778
 20
0.206675609679555
 11
1.239744797803386
 21
0.206675609679555
 72
     1
 10
1.239744797803385
 20
0.206675609679555
 11
1.248886633049885
 21
0.206675609679555
 72
     1
 10
1.248886633049885
 20
0.206675609679555
 11
1.258121752329513
 21
0.206675609679555
 72
     1
 10
1.258121752329514
 20
0.206675609679555
 11
1.267356871609143
 21
0.206675609679555
 72
     1
 10
1.267356871609142
 20
0.206675609679555
 11
1.276218854756259
 21
0.206675609679555
 72
     1
 10
1.276218854756259
 20
0.206675609679555
 11
1.284521133704611
 21
0.206675609679555
 72
     1
 10
1.284521133704611
 20
0.206675609679555
 11
1.291890572321688
 21
0.206675609679555
 72
     1
 10
1.291890572321688
 20
0.206675609679555
 11
1.298140602541234
 21
0.206675609679555
 72
     1
 10
1.298140602541234
 20
0.206675609679555
 11
1.30289808823074
 21
0.206675609679555
 72
     1
 10
1.30289808823074
 20
0.206675609679555
 11
1.305976461323949
 21
0.206675609679555
 72
     1
 10
1.305976461323949
 20
0.206675609679555
 11
1.30709586972148
 21
0.206675609679555
 72
     1
 10
1.307095869721479
 20
0.206675609679555
 11
1.307095869721479
 21
0.2277578011663822
 72
     1
 10
1.307095869721479
 20
0.2277578011663825
 11
1.304577200827036
 21
0.2277578011663825
 72
     1
 10
1.304577200827037
 20
0.2277578011663825
 11
1.182188549363684
 21
0.2277578011663825
 72
     1
 10
1.182188549363684
 20
0.2277578011663825
 11
1.182188549363684
 21
0.0926825211976832
 72
     1
 10
1.182188549363684
 20
0.0926825211976832
 11
1.311853355410986
 21
0.0926825211976832
 72
     1
 10
1.311853355410985
 20
0.0926825211976832
 11
1.311853355410985
 21
0.113671428651383
 72
     1
 10
1.311853355410985
 20
0.1136714286513832
 11
1.310733947013454
 21
0.1136714286513832
 72
     1
 10
1.310733947013455
 20
0.1136714286513832
 11
1.307469005853991
 21
0.1136714286513832
 72
     1
 10
1.307469005853991
 20
0.1136714286513832
 11
1.302431668065102
 21
0.1136714286513832
 72
     1
 10
1.302431668065103
 20
0.1136714286513832
 11
1.295901785746174
 21
0.1136714286513832
 72
     1
 10
1.295901785746174
 20
0.1136714286513832
 11
1.288159210996586
 21
0.1136714286513832
 72
     1
 10
1.288159210996587
 20
0.1136714286513832
 11
1.279483795915724
 21
0.1136714286513832
 72
     1
 10
1.279483795915723
 20
0.1136714286513832
 11
1.270155392602968
 21
0.1136714286513832
 72
     1
 10
1.270155392602969
 20
0.1136714286513832
 11
1.260547137190832
 21
0.1136714286513832
 72
     1
 10
1.260547137190831
 20
0.1136714286513832
 11
1.250752313712437
 21
0.1136714286513832
 72
     1
 10
1.250752313712437
 20
0.1136714286513832
 11
1.241330626366554
 21
0.1136714286513832
 72
     1
 10
1.241330626366555
 20
0.1136714286513832
 11
1.23237535918631
 21
0.1136714286513832
 72
     1
 10
1.232375359186308
 20
0.1136714286513832
 11
1.224166364271082
 21
0.1136714286513832
 72
     1
 10
1.224166364271083
 20
0.1136714286513832
 11
1.217170061786517
 21
0.1136714286513832
 72
     1
 10
1.217170061786517
 20
0.1136714286513832
 11
1.211479735765737
 21
0.1136714286513832
 72
     1
 10
1.211479735765737
 20
0.1136714286513832
 11
1.20756180637438
 21
0.1136714286513832
 72
     1
 10
1.207561806374379
 20
0.1136714286513832
 11
1.2056028416787
 21
0.1136714286513832
 72
     1
 10
1.205602841678699
 20
0.1136714286513832
 11
1.205602841678699
 21
0.1163766656120825
 72
     1
 10
1.205602841678699
 20
0.1163766656120823
 11
1.205602841678699
 21
0.1209475832353323
 72
     1
 10
1.205602841678699
 20
0.1209475832353325
 11
1.205602841678699
 21
0.1267311932892411
 72
     1
 10
1.205602841678699
 20
0.1267311932892408
 11
1.205602841678699
 21
0.1330745075419143
 72
     1
 10
1.205602841678699
 20
0.1330745075419144
 11
1.205602841678699
 21
0.1395111058277156
 72
     1
 10
1.205602841678699
 20
0.1395111058277158
 11
1.205602841678699
 21
0.1452947158816239
 72
     1
 10
1.205602841678699
 20
0.145294715881624
 11
1.205602841678699
 21
0.1498656335048746
 72
     1
 10
1.205602841678699
 20
0.1498656335048745
 11
1.205602841678699
 21
0.1525708704655738
 97
        0
 75
     0
 76
     1
 98
        1
 10
-0.3743130907707726
 20
-0.2500502867693841
450
        0
451
        0
460
0.0
461
0.0
452
        0
462
0.0
453
        0
470

1001
ACAD
1010
0.0
1020
0.0
1030
0.0
  0
HATCH
  5
891A
330
8813
100
AcDbEntity
  8
Kawneer Logo-English
100
AcDbHatch
 10
0.0
 20
0.0
 30
0.0
210
0.0
220
0.0
230
1.0
  2
SOLID
 70
     1
 71
     0
 91
        1
 92
        1
 93
       87
 72
     1
 10
1.049352086190046
 20
0.1525708704655737
 11
1.051217766852597
 21
0.1525708704655737
 72
     1
 10
1.051217766852596
 20
0.1525708704655737
 11
1.054949128177699
 21
0.1525708704655737
 72
     1
 10
1.0549491281777
 20
0.1525708704655737
 11
1.060173034032843
 21
0.1525708704655737
 72
     1
 10
1.060173034032843
 20
0.1525708704655737
 11
1.0667962003849
 21
0.1525708704655737
 72
     1
 10
1.0667962003849
 20
0.1525708704655737
 11
1.074352207068231
 21
0.1525708704655737
 72
     1
 10
1.074352207068232
 20
0.1525708704655737
 11
1.082747770049711
 21
0.1525708704655737
 72
     1
 10
1.082747770049711
 20
0.1525708704655737
 11
1.0915164691637
 21
0.1525708704655737
 72
     1
 10
1.091516469163701
 20
0.1525708704655737
 11
1.100565020377075
 21
0.1525708704655737
 72
     1
 10
1.100565020377073
 20
0.1525708704655737
 11
1.109520287557319
 21
0.1525708704655737
 72
     1
 10
1.10952028755732
 20
0.1525708704655737
 11
1.118195702638183
 21
0.1525708704655737
 72
     1
 10
1.118195702638182
 20
0.1525708704655737
 11
1.126218129487151
 21
0.1525708704655737
 72
     1
 10
1.126218129487152
 20
0.1525708704655737
 11
1.133401000037974
 21
0.1525708704655737
 72
     1
 10
1.133401000037974
 20
0.1525708704655737
 11
1.139557746224391
 21
0.1525708704655737
 72
     1
 10
1.139557746224392
 20
0.1525708704655737
 11
1.14422194788077
 21
0.1525708704655737
 72
     1
 10
1.144221947880769
 20
0.1525708704655737
 11
1.147207036940851
 21
0.1525708704655737
 72
     1
 10
1.147207036940852
 20
0.1525708704655737
 11
1.148233161305255
 21
0.1525708704655737
 72
     1
 10
1.148233161305255
 20
0.1525708704655737
 11
1.148233161305255
 21
0.1730000737205081
 72
     1
 10
1.148233161305255
 20
0.1730000737205078
 11
1.147207036940852
 21
0.1730000737205078
 72
     1
 10
1.147207036940852
 20
0.1730000737205078
 11
1.14422194788077
 21
0.1730000737205078
 72
     1
 10
1.144221947880769
 20
0.1730000737205078
 11
1.139557746224391
 21
0.1730000737205078
 72
     1
 10
1.139557746224392
 20
0.1730000737205078
 11
1.133494284071101
 21
0.1730000737205078
 72
     1
 10
1.133494284071101
 20
0.1730000737205078
 11
1.126218129487152
 21
0.1730000737205078
 72
     1
 10
1.126218129487152
 20
0.1730000737205078
 11
1.118195702638183
 21
0.1730000737205078
 72
     1
 10
1.118195702638182
 20
0.1730000737205078
 11
1.10952028755732
 21
0.1730000737205078
 72
     1
 10
1.10952028755732
 20
0.1730000737205078
 11
1.100565020377074
 21
0.1730000737205078
 72
     1
 10
1.100565020377073
 20
0.1730000737205078
 11
1.0915164691637
 21
0.1730000737205078
 72
     1
 10
1.091516469163701
 20
0.1730000737205078
 11
1.082747770049712
 21
0.1730000737205078
 72
     1
 10
1.082747770049711
 20
0.1730000737205078
 11
1.074352207068231
 21
0.1730000737205078
 72
     1
 10
1.074352207068232
 20
0.1730000737205078
 11
1.0667962003849
 21
0.1730000737205078
 72
     1
 10
1.0667962003849
 20
0.1730000737205078
 11
1.060173034032843
 21
0.1730000737205078
 72
     1
 10
1.060173034032843
 20
0.1730000737205078
 11
1.054949128177701
 21
0.1730000737205078
 72
     1
 10
1.0549491281777
 20
0.1730000737205078
 11
1.051217766852597
 21
0.1730000737205078
 72
     1
 10
1.051217766852596
 20
0.1730000737205078
 11
1.049352086190045
 21
0.1730000737205078
 72
     1
 10
1.049352086190046
 20
0.1730000737205078
 11
1.049352086190046
 21
0.1754254585818243
 72
     1
 10
1.049352086190046
 20
0.1754254585818245
 11
1.049352086190046
 21
0.1794366720063095
 72
     1
 10
1.049352086190046
 20
0.1794366720063094
 11
1.049352086190046
 21
0.1843807257620694
 72
     1
 10
1.049352086190046
 20
0.1843807257620694
 11
1.049352086190046
 21
0.1898844837165951
 72
     1
 10
1.049352086190046
 20
0.1898844837165951
 11
1.049352086190046
 21
0.1952949576379935
 72
     1
 10
1.049352086190046
 20
0.1952949576379937
 11
1.049352086190046
 21
0.2003322954268815
 72
     1
 10
1.049352086190046
 20
0.2003322954268814
 11
1.049352086190046
 21
0.2042502248182386
 72
     1
 10
1.049352086190046
 20
0.2042502248182386
 11
1.049352086190046
 21
0.206675609679555
 72
     1
 10
1.049352086190046
 20
0.206675609679555
 11
1.051217766852597
 21
0.206675609679555
 72
     1
 10
1.051217766852596
 20
0.206675609679555
 11
1.055042412210825
 21
0.206675609679555
 72
     1
 10
1.055042412210827
 20
0.206675609679555
 11
1.060452886132226
 21
0.206675609679555
 72
     1
 10
1.060452886132225
 20
0.206675609679555
 11
1.067169336517409
 21
0.206675609679555
 72
     1
 10
1.06716933651741
 20
0.206675609679555
 11
1.075005195300124
 21
0.206675609679555
 72
     1
 10
1.075005195300123
 20
0.206675609679555
 11
1.083494042314731
 21
0.206675609679555
 72
     1
 10
1.083494042314732
 20
0.206675609679555
 11
1.092542593528105
 21
0.206675609679555
 72
     1
 10
1.092542593528106
 20
0.206675609679555
 11
1.10187099684086
 21
0.206675609679555
 72
     1
 10
1.101870996840861
 20
0.206675609679555
 11
1.111106116120489
 21
0.206675609679555
 72
     1
 10
1.111106116120488
 20
0.206675609679555
 11
1.119968099267605
 21
0.206675609679555
 72
     1
 10
1.119968099267605
 20
0.206675609679555
 11
1.128270378215957
 21
0.206675609679555
 72
     1
 10
1.128270378215957
 20
0.206675609679555
 11
1.135639816833034
 21
0.206675609679555
 72
     1
 10
1.135639816833034
 20
0.206675609679555
 11
1.14188984705258
 21
0.206675609679555
 72
     1
 10
1.141889847052581
 20
0.206675609679555
 11
1.146647332742086
 21
0.206675609679555
 72
     1
 10
1.146647332742086
 20
0.206675609679555
 11
1.149725705835295
 21
0.206675609679555
 72
     1
 10
1.149725705835296
 20
0.206675609679555
 11
1.150845114232827
 21
0.206675609679555
 72
     1
 10
1.150845114232826
 20
0.206675609679555
 11
1.150845114232826
 21
0.2277578011663822
 72
     1
 10
1.150845114232826
 20
0.2277578011663825
 11
1.148326445338383
 21
0.2277578011663825
 72
     1
 10
1.148326445338383
 20
0.2277578011663825
 11
1.025937793875031
 21
0.2277578011663825
 72
     1
 10
1.025937793875032
 20
0.2277578011663825
 11
1.025937793875032
 21
0.0926825211976832
 72
     1
 10
1.025937793875032
 20
0.0926825211976832
 11
1.155602599922332
 21
0.0926825211976832
 72
     1
 10
1.155602599922332
 20
0.0926825211976832
 11
1.155602599922332
 21
0.113671428651383
 72
     1
 10
1.155602599922332
 20
0.1136714286513832
 11
1.154483191524801
 21
0.1136714286513832
 72
     1
 10
1.154483191524799
 20
0.1136714286513832
 11
1.151218250365336
 21
0.1136714286513832
 72
     1
 10
1.151218250365338
 20
0.1136714286513832
 11
1.146180912576449
 21
0.1136714286513832
 72
     1
 10
1.146180912576449
 20
0.1136714286513832
 11
1.13965103025752
 21
0.1136714286513832
 72
     1
 10
1.13965103025752
 20
0.1136714286513832
 11
1.131908455507932
 21
0.1136714286513832
 72
     1
 10
1.131908455507931
 20
0.1136714286513832
 11
1.12323304042707
 21
0.1136714286513832
 72
     1
 10
1.123233040427071
 20
0.1136714286513832
 11
1.113904637114314
 21
0.1136714286513832
 72
     1
 10
1.113904637114314
 20
0.1136714286513832
 11
1.104296381702177
 21
0.1136714286513832
 72
     1
 10
1.104296381702177
 20
0.1136714286513832
 11
1.094501558223783
 21
0.1136714286513832
 72
     1
 10
1.094501558223784
 20
0.1136714286513832
 11
1.085079870877901
 21
0.1136714286513832
 72
     1
 10
1.085079870877899
 20
0.1136714286513832
 11
1.076124603697654
 21
0.1136714286513832
 72
     1
 10
1.076124603697655
 20
0.1136714286513832
 11
1.067915608782429
 21
0.1136714286513832
 72
     1
 10
1.067915608782429
 20
0.1136714286513832
 11
1.060919306297863
 21
0.1136714286513832
 72
     1
 10
1.060919306297863
 20
0.1136714286513832
 11
1.055228980277083
 21
0.1136714286513832
 72
     1
 10
1.055228980277082
 20
0.1136714286513832
 11
1.051311050885725
 21
0.1136714286513832
 72
     1
 10
1.051311050885726
 20
0.1136714286513832
 11
1.049352086190046
 21
0.1136714286513832
 72
     1
 10
1.049352086190046
 20
0.1136714286513832
 11
1.049352086190046
 21
0.1163766656120825
 72
     1
 10
1.049352086190046
 20
0.1163766656120823
 11
1.049352086190046
 21
0.1209475832353323
 72
     1
 10
1.049352086190046
 20
0.1209475832353325
 11
1.049352086190046
 21
0.1267311932892411
 72
     1
 10
1.049352086190046
 20
0.1267311932892408
 11
1.049352086190046
 21
0.1330745075419143
 72
     1
 10
1.049352086190046
 20
0.1330745075419144
 11
1.049352086190046
 21
0.1395111058277156
 72
     1
 10
1.049352086190046
 20
0.1395111058277158
 11
1.049352086190046
 21
0.1452947158816239
 72
     1
 10
1.049352086190046
 20
0.145294715881624
 11
1.049352086190046
 21
0.1498656335048746
 72
     1
 10
1.049352086190046
 20
0.1498656335048745
 11
1.049352086190046
 21
0.1525708704655738
 97
        0
 75
     0
 76
     1
 98
        1
 10
-0.3743130907707726
 20
-0.2500502867693841
450
        0
451
        0
460
0.0
461
0.0
452
        0
462
0.0
453
        0
470

1001
ACAD
1010
0.0
1020
0.0
1030
0.0
  0
HATCH
  5
891B
330
8813
100
AcDbEntity
  8
Kawneer Logo-English
100
AcDbHatch
 10
0.0
 20
0.0
 30
0.0
210
0.0
220
0.0
230
1.0
  2
SOLID
 70
     1
 71
     0
 91
        1
 92
        1
 93
       42
 72
     1
 10
0.9725793269260698
 20
0.2277578011663825
 11
0.9725793269260698
 21
0.1354998924032311
 72
     1
 10
0.9725793269260698
 20
0.1354998924032311
 11
0.9729524630585808
 21
0.1264513411898582
 72
     1
 10
0.9729524630585796
 20
0.1264513411898583
 11
0.9729524630585796
 21
0.1255185008585825
 72
     1
 10
0.9729524630585796
 20
0.1255185008585824
 11
0.9731390311248343
 21
0.1238393882622866
 72
     1
 10
0.9731390311248349
 20
0.1238393882622866
 11
0.9717397706279211
 21
0.1254252168254551
 72
     1
 10
0.97173977062792
 20
0.1254252168254551
 11
0.9710867823960281
 21
0.1262647731236031
 72
     1
 10
0.9710867823960294
 20
0.1262647731236031
 11
0.9641837639445897
 21
0.1339140638400625
 72
     1
 10
0.9641837639445899
 20
0.1339140638400624
 11
0.8755639324734129
 21
0.2277578011663823
 72
     1
 10
0.8755639324734115
 20
0.2277578011663825
 11
0.8529891964565429
 21
0.2277578011663825
 72
     1
 10
0.8529891964565434
 20
0.2277578011663825
 11
0.8529891964565434
 21
0.0926825211976832
 72
     1
 10
0.8529891964565434
 20
0.0926825211976832
 11
0.8756572165065401
 21
0.0926825211976832
 72
     1
 10
0.875657216506541
 20
0.0926825211976832
 11
0.875657216506541
 21
0.1927762887435495
 72
     1
 10
0.875657216506541
 20
0.1927762887435495
 11
0.875657216506541
 21
0.1931494248760597
 72
     1
 10
0.875657216506541
 20
0.1931494248760596
 11
0.8755639324734129
 21
0.193988981174208
 72
     1
 10
0.8755639324734115
 20
0.1939889811742079
 11
0.8754706484402849
 21
0.1952949576379935
 72
     1
 10
0.8754706484402859
 20
0.1952949576379937
 11
0.8753773644071577
 21
0.1967875021680344
 72
     1
 10
0.875377364407158
 20
0.1967875021680343
 11
0.8755639324734126
 21
0.1965076500686515
 72
     1
 10
0.8755639324734115
 20
0.1965076500686517
 11
0.8756572165065396
 21
0.1963210820023967
 72
     1
 10
0.875657216506541
 20
0.1963210820023967
 11
0.8764967728046894
 21
0.1954815257042487
 72
     1
 10
0.8764967728046887
 20
0.1954815257042488
 11
0.8781758854009835
 21
0.1936158450416976
 72
     1
 10
0.8781758854009842
 20
0.1936158450416973
 11
0.8797617139641527
 21
0.1917501643791464
 72
     1
 10
0.879761713964152
 20
0.1917501643791466
 11
0.8805079862291723
 21
0.1909106080809982
 72
     1
 10
0.8805079862291727
 20
0.190910608080998
 11
0.8816273946267036
 21
0.1897911996834678
 72
     1
 10
0.8816273946267028
 20
0.1897911996834681
 11
0.884519199653657
 21
0.1867128265902584
 72
     1
 10
0.8845191996536581
 20
0.1867128265902582
 11
0.8891834013100353
 21
0.1818620568676254
 72
     1
 10
0.889183401310035
 20
0.1818620568676252
 11
0.8951535794301982
 21
0.1756120266480794
 72
     1
 10
0.8951535794301985
 20
0.1756120266480794
 11
0.9021498819147662
 21
0.1681493039978751
 72
     1
 10
0.9021498819147669
 20
0.1681493039978752
 11
0.9099857406974814
 21
0.1598470250495227
 72
     1
 10
0.9099857406974813
 20
0.1598470250495225
 11
0.9183813036789613
 21
0.1509850419024051
 72
     1
 10
0.9183813036789612
 20
0.1509850419024052
 11
0.9271500027929521
 21
0.1418432066559046
 72
     1
 10
0.9271500027929509
 20
0.1418432066559046
 11
0.9358254178738118
 21
0.1326080873762767
 72
     1
 10
0.9358254178738132
 20
0.1326080873762767
 11
0.9442209808552931
 21
0.1237461042291589
 72
     1
 10
0.9442209808552931
 20
0.1237461042291589
 11
0.9520568396380092
 21
0.1154438252808068
 72
     1
 10
0.9520568396380092
 20
0.1154438252808068
 11
0.9590531421225751
 21
0.1079811026306025
 72
     1
 10
0.959053142122574
 20
0.1079811026306024
 11
0.9650233202427372
 21
0.101731072411056
 72
     1
 10
0.9650233202427376
 20
0.101731072411056
 11
0.9695942378659868
 21
0.0968803026884232
 72
     1
 10
0.9695942378659871
 20
0.096880302688423
 11
0.9725793269260696
 21
0.0938019295952138
 72
     1
 10
0.9725793269260698
 20
0.093801929595214
 11
0.9736054512904727
 21
0.0926825211976834
 72
     1
 10
0.9736054512904726
 20
0.0926825211976832
 11
0.9952473469760661
 21
0.0926825211976832
 72
     1
 10
0.9952473469760651
 20
0.0926825211976832
 11
0.9952473469760651
 21
0.2277578011663825
 72
     1
 10
0.9952473469760651
 20
0.2277578011663825
 11
0.9927286780816201
 21
0.2277578011663825
 72
     1
 10
0.9927286780816203
 20
0.2277578011663825
 11
0.9725793269260686
 21
0.2277578011663825
 97
        0
 75
     0
 76
     1
 98
        1
 10
-0.3743130907707726
 20
-0.2500502867693841
450
        0
451
        0
460
0.0
461
0.0
452
        0
462
0.0
453
        0
470

1001
ACAD
1010
0.0
1020
0.0
1030
0.0
  0
HATCH
  5
891C
330
8813
100
AcDbEntity
  8
Kawneer Logo-English
100
AcDbHatch
 10
0.0
 20
0.0
 30
0.0
210
0.0
220
0.0
230
1.0
  2
SOLID
 70
     1
 71
     0
 91
        2
 92
       16
 93
       32
 72
     1
 10
0.5269615006757409
 20
0.144641727649731
 11
0.5290137494045469
 21
0.148652941074216
 72
     1
 10
0.5290137494045464
 20
0.1486529410742159
 11
0.5322786905640116
 21
0.1551828233931449
 72
     1
 10
0.532278690564012
 20
0.1551828233931452
 11
0.5364764720547521
 21
0.1633918183083696
 72
     1
 10
0.5364764720547526
 20
0.1633918183083696
 11
0.5409541056448736
 21
0.1722538014554874
 72
     1
 10
0.5409541056448726
 20
0.1722538014554873
 11
0.545338455201869
 21
0.1808359325032223
 72
     1
 10
0.5453384552018701
 20
0.1808359325032223
 11
0.5490698165269726
 21
0.1882053711202994
 72
     1
 10
0.549069816526973
 20
0.1882053711202996
 11
0.5515884854214162
 21
0.1932427089091875
 72
     1
 10
0.5515884854214148
 20
0.1932427089091872
 11
0.5526146097858177
 21
0.1952016736048658
 72
     1
 10
0.5526146097858194
 20
0.1952016736048658
 11
0.552801177852074
 21
0.195761377803631
 72
     1
 10
0.5528011778520723
 20
0.1957613778036309
 11
0.5533608820508379
 21
0.1970673542674166
 72
     1
 10
0.5533608820508378
 20
0.1970673542674169
 11
0.5542004383489863
 21
0.1990263189630955
 72
     1
 10
0.5542004383489872
 20
0.1990263189630952
 11
0.5550399946471356
 21
0.2012651357581567
 72
     1
 10
0.5550399946471352
 20
0.2012651357581567
 11
0.5555064148127727
 21
0.2001457273606265
 72
     1
 10
0.5555064148127729
 20
0.2001457273606264
 11
0.5560661190115385
 21
0.198933034929968
 72
     1
 10
0.5560661190115379
 20
0.198933034929968
 11
0.5567191072434298
 21
0.197533774433055
 72
     1
 10
0.5567191072434304
 20
0.197533774433055
 11
0.5574653795084506
 21
0.1959479458698865
 72
     1
 10
0.557465379508451
 20
0.1959479458698865
 11
0.5583049358065995
 21
0.1942688332735902
 72
     1
 10
0.5583049358065986
 20
0.1942688332735903
 11
0.5606370366347874
 21
0.1896046316172126
 72
     1
 10
0.5606370366347871
 20
0.1896046316172126
 11
0.5639952618273804
 21
0.1828881812320289
 72
     1
 10
0.5639952618273814
 20
0.1828881812320287
 11
0.5680064752518651
 21
0.1748657543830587
 72
     1
 10
0.5680064752518637
 20
0.1748657543830589
 11
0.57239082480886
 21
0.1661903393021966
 72
     1
 10
0.5723908248088612
 20
0.1661903393021967
 11
0.5765886062996012
 21
0.1577947763207168
 72
     1
 10
0.5765886062996
 20
0.1577947763207165
 11
0.5803199676247008
 21
0.1503320536705122
 72
     1
 10
0.5803199676247015
 20
0.1503320536705122
 11
0.5831184886185295
 21
0.144641727649731
 72
     1
 10
0.5831184886185295
 20
0.144641727649731
 11
0.5791072751940441
 21
0.144641727649731
 72
     1
 10
0.5791072751940436
 20
0.144641727649731
 11
0.5724841088419869
 21
0.144641727649731
 72
     1
 10
0.5724841088419872
 20
0.144641727649731
 11
0.5641818298936356
 21
0.144641727649731
 72
     1
 10
0.5641818298936352
 20
0.144641727649731
 11
0.5550399946471351
 21
0.144641727649731
 72
     1
 10
0.5550399946471352
 20
0.144641727649731
 11
0.5458981594006351
 21
0.144641727649731
 72
     1
 10
0.5458981594006352
 20
0.144641727649731
 11
0.5375958804522815
 21
0.144641727649731
 72
     1
 10
0.5375958804522814
 20
0.144641727649731
 11
0.5310659981333528
 21
0.144641727649731
 72
     1
 10
0.5310659981333524
 20
0.144641727649731
 11
0.5269615006757405
 21
0.144641727649731
 97
        0
 92
        1
 93
      141
 72
     1
 10
0.5656743744236757
 20
0.2277578011663825
 11
0.544405614870593
 21
0.2277578011663825
 72
     1
 10
0.544405614870593
 20
0.2277578011663825
 11
0.4748157261574382
 21
0.0934287934627039
 72
     1
 10
0.4748157261574378
 20
0.0934287934627039
 11
0.4729500454948865
 21
0.0955743262246376
 72
     1
 10
0.4729500454948874
 20
0.0955743262246376
 11
0.4699649564348049
 21
0.0991191194834847
 72
     1
 10
0.4699649564348043
 20
0.0991191194834847
 11
0.4661403110765752
 21
0.1036900371067346
 72
     1
 10
0.4661403110765754
 20
0.1036900371067347
 11
0.4615693934533244
 21
0.1091005110281331
 72
     1
 10
0.461569393453325
 20
0.109100511028133
 11
0.456345487598182
 21
0.1152572572145517
 72
     1
 10
0.4563454875981812
 20
0.1152572572145516
 11
0.4506551615774008
 21
0.1219737075997353
 72
     1
 10
0.4506551615774015
 20
0.1219737075997354
 11
0.4447782674903648
 21
0.1290632941174296
 72
     1
 10
0.4447782674903636
 20
0.1290632941174296
 11
0.4387148053370722
 21
0.1362461646682511
 72
     1
 10
0.4387148053370727
 20
0.1362461646682512
 11
0.4326513431837832
 21
0.1433357511859454
 72
     1
 10
0.4326513431837844
 20
0.1433357511859453
 11
0.4268677331298759
 21
0.1502387696373844
 72
     1
 10
0.4268677331298756
 20
0.1502387696373844
 11
0.4214572592084763
 21
0.1566753679231857
 72
     1
 10
0.4214572592084754
 20
0.1566753679231858
 11
0.4165132054527153
 21
0.1625522620102216
 72
     1
 10
0.4165132054527163
 20
0.1625522620102216
 11
0.4123154239619763
 21
0.1674963157659821
 72
     1
 10
0.4123154239619753
 20
0.1674963157659822
 11
0.4088639147362555
 21
0.1715075291904667
 72
     1
 10
0.4088639147362568
 20
0.1715075291904669
 11
0.4065318139080681
 21
0.1743993342174211
 72
     1
 10
0.4065318139080665
 20
0.1743993342174211
 11
0.405319121477409
 21
0.1757985947143345
 72
     1
 10
0.4053191214774104
 20
0.1757985947143345
 11
0.4067183819743243
 21
0.1769180031118651
 72
     1
 10
0.4067183819743235
 20
0.1769180031118651
 11
0.4094236189350213
 21
0.1788769678075437
 72
     1
 10
0.4094236189350218
 20
0.1788769678075437
 11
0.4132482642932526
 21
0.1816754888013702
 72
     1
 10
0.4132482642932525
 20
0.1816754888013703
 11
0.4179124659496298
 21
0.1852202820602174
 72
     1
 10
0.417912465949629
 20
0.1852202820602174
 11
0.4232296558379
 21
0.189138211451575
 72
     1
 10
0.4232296558379001
 20
0.1891382114515751
 11
0.4291065499249351
 21
0.1935225610085696
 72
     1
 10
0.4291065499249367
 20
0.1935225610085698
 11
0.4352632961113562
 21
0.1981867626649482
 72
     1
 10
0.4352632961113554
 20
0.1981867626649479
 11
0.4416066103640296
 21
0.2028509643213252
 72
     1
 10
0.4416066103640293
 20
0.2028509643213252
 11
0.4479499246167016
 21
0.2076084500108307
 72
     1
 10
0.4479499246167018
 20
0.2076084500108307
 11
0.4540133867699932
 21
0.2120860836009535
 72
     1
 10
0.4540133867699927
 20
0.2120860836009535
 11
0.4596104287576467
 21
0.2162838650916932
 72
     1
 10
0.4596104287576468
 20
0.216283865091693
 11
0.4646477665465351
 21
0.2200152264167952
 72
     1
 10
0.464647766546535
 20
0.2200152264167951
 11
0.4689388320704013
 21
0.223186883543132
 72
     1
 10
0.4689388320704016
 20
0.2231868835431323
 11
0.4721104891967386
 21
0.2256122684044488
 72
     1
 10
0.4721104891967376
 20
0.2256122684044488
 11
0.4742560219586717
 21
0.2271980969676172
 72
     1
 10
0.4742560219586727
 20
0.2271980969676173
 11
0.475002294223693
 21
0.2277578011663825
 72
     1
 10
0.4750022942236929
 20
0.2277578011663825
 11
0.4674462875403612
 21
0.2277578011663825
 72
     1
 10
0.4674462875403611
 20
0.2277578011663825
 11
0.4395543616352215
 21
0.2277578011663825
 72
     1
 10
0.439554361635222
 20
0.2277578011663825
 11
0.4386215213039473
 21
0.2270115289013622
 72
     1
 10
0.4386215213039466
 20
0.2270115289013622
 11
0.4359162843432469
 21
0.2250525642056836
 72
     1
 10
0.4359162843432465
 20
0.2250525642056836
 11
0.4318117868856346
 21
0.2220674751456017
 72
     1
 10
0.4318117868856351
 20
0.2220674751456017
 11
0.4264013129642376
 21
0.2180562617211167
 72
     1
 10
0.4264013129642379
 20
0.2180562617211168
 11
0.4200579987115638
 21
0.2132987760316117
 72
     1
 10
0.4200579987115641
 20
0.2132987760316114
 11
0.4128751281607416
 21
0.2079815861433408
 72
     1
 10
0.4128751281607408
 20
0.2079815861433408
 11
0.4051325534111546
 21
0.20229126012256
 72
     1
 10
0.4051325534111552
 20
0.20229126012256
 11
0.397016842529058
 21
0.1963210820023964
 72
     1
 10
0.3970168425290583
 20
0.1963210820023967
 11
0.3889011316469611
 21
0.1903509038822331
 72
     1
 10
0.3889011316469611
 20
0.190350903882233
 11
0.3808787047979902
 21
0.1844740097951972
 72
     1
 10
0.3808787047979898
 20
0.1844740097951974
 11
0.3733226981146581
 21
0.1787836837744166
 72
     1
 10
0.373322698114658
 20
0.1787836837744166
 11
0.3663263956300919
 21
0.173653061952401
 72
     1
 10
0.3663263956300931
 20
0.173653061952401
 11
0.3601696494436735
 21
0.169082144329151
 72
     1
 10
0.3601696494436726
 20
0.1690821443291508
 11
0.3550390276216579
 21
0.1653507830040483
 72
     1
 10
0.3550390276216584
 20
0.1653507830040482
 11
0.3513076662965558
 21
0.1625522620102218
 72
     1
 10
0.3513076662965551
 20
0.1625522620102216
 11
0.3490688495014928
 21
0.1609664334470531
 72
     1
 10
0.3490688495014926
 20
0.1609664334470531
 11
0.3490688495014926
 21
0.1631119662089868
 72
     1
 10
0.3490688495014926
 20
0.1631119662089868
 11
0.3490688495014926
 21
0.1662836233353237
 72
     1
 10
0.3490688495014926
 20
0.1662836233353238
 11
0.3490688495014926
 21
0.1702948367598088
 72
     1
 10
0.3490688495014926
 20
0.1702948367598088
 11
0.3490688495014926
 21
0.1749590384161865
 72
     1
 10
0.3490688495014926
 20
0.1749590384161865
 11
0.3490688495014926
 21
0.1801829442713294
 72
     1
 10
0.3490688495014926
 20
0.1801829442713296
 11
0.3490688495014926
 21
0.185779986258983
 72
     1
 10
0.3490688495014926
 20
0.1857799862589829
 11
0.3490688495014926
 21
0.1916568803460187
 72
     1
 10
0.3490688495014926
 20
0.1916568803460186
 11
0.3490688495014926
 21
0.1975337744330549
 72
     1
 10
0.3490688495014926
 20
0.197533774433055
 11
0.3490688495014926
 21
0.2033173844869632
 72
     1
 10
0.3490688495014926
 20
0.2033173844869631
 11
0.3490688495014926
 21
0.2088211424414888
 72
     1
 10
0.3490688495014926
 20
0.2088211424414888
 11
0.3490688495014926
 21
0.2139517642635044
 72
     1
 10
0.3490688495014926
 20
0.2139517642635044
 11
0.3490688495014926
 21
0.2185226818867544
 72
     1
 10
0.3490688495014926
 20
0.2185226818867545
 11
0.3490688495014926
 21
0.2222540432118567
 72
     1
 10
0.3490688495014926
 20
0.2222540432118567
 11
0.3490688495014926
 21
0.2252391322719387
 72
     1
 10
0.3490688495014926
 20
0.2252391322719387
 11
0.3490688495014926
 21
0.2271048129344895
 72
     1
 10
0.3490688495014926
 20
0.2271048129344895
 11
0.3490688495014926
 21
0.2277578011663825
 72
     1
 10
0.3490688495014926
 20
0.2277578011663825
 11
0.3258411252527322
 21
0.2277578011663825
 72
     1
 10
0.3258411252527336
 20
0.2277578011663825
 11
0.3258411252527336
 21
0.0926825211976832
 72
     1
 10
0.3258411252527336
 20
0.0926825211976832
 11
0.3486957133689848
 21
0.0926825211976832
 72
     1
 10
0.3486957133689845
 20
0.0926825211976832
 11
0.3486957133689845
 21
0.0943616337939795
 72
     1
 10
0.3486957133689845
 20
0.0943616337939795
 11
0.3486957133689845
 21
0.0988392673841017
 72
     1
 10
0.3486957133689845
 20
0.0988392673841017
 11
0.3486957133689845
 21
0.1051825816367752
 72
     1
 10
0.3486957133689845
 20
0.1051825816367753
 11
0.3486957133689845
 21
0.1125520202538523
 72
     1
 10
0.3486957133689845
 20
0.1125520202538524
 11
0.3486957133689845
 21
0.1200147429040567
 72
     1
 10
0.3486957133689845
 20
0.1200147429040567
 11
0.3486957133689845
 21
0.1267311932892408
 72
     1
 10
0.3486957133689845
 20
0.1267311932892408
 11
0.3486957133689845
 21
0.1317685310781287
 72
     1
 10
0.3486957133689845
 20
0.1317685310781289
 11
0.3486957133689845
 21
0.1342871999725727
 72
     1
 10
0.3486957133689845
 20
0.1342871999725725
 11
0.3507479620977905
 21
0.1356864604694859
 72
     1
 10
0.35074796209779
 20
0.1356864604694859
 11
0.3548524595554018
 21
0.1387648335626952
 72
     1
 10
0.3548524595554015
 20
0.1387648335626952
 11
0.3605427855761835
 21
0.1428693310203079
 72
     1
 10
0.3605427855761842
 20
0.1428693310203079
 11
0.3668860998288565
 21
0.1476268167098129
 72
     1
 10
0.3668860998288568
 20
0.1476268167098129
 11
0.373322698114659
 21
0.1522910183661906
 72
     1
 10
0.373322698114658
 20
0.1522910183661908
 11
0.3791995922016947
 21
0.1565820838900582
 72
     1
 10
0.3791995922016946
 20
0.1565820838900582
 11
0.3836772257918156
 21
0.1599403090826502
 72
     1
 10
0.3836772257918159
 20
0.1599403090826503
 11
0.386195894686261
 21
0.1618059897452011
 72
     1
 10
0.3861958946862609
 20
0.1618059897452011
 11
0.3873153030837921
 21
0.1604067292482882
 72
     1
 10
0.3873153030837915
 20
0.1604067292482878
 11
0.3894608358457238
 21
0.1577947763207163
 72
     1
 10
0.3894608358457248
 20
0.1577947763207165
 11
0.3925392089389353
 21
0.1541566990287417
 72
     1
 10
0.3925392089389348
 20
0.1541566990287417
 11
0.396457138330292
 21
0.149492497372364
 72
     1
 10
0.3964571383302933
 20
0.149492497372364
 11
0.4009347719204161
 21
0.1442685915172211
 72
     1
 10
0.4009347719204146
 20
0.1442685915172209
 11
0.4057855416430466
 21
0.138391697430185
 72
     1
 10
0.4057855416430463
 20
0.1383916974301853
 11
0.4109161634650628
 21
0.1322349512437666
 72
     1
 10
0.410916163465064
 20
0.1322349512437666
 11
0.4162333533533335
 21
0.1259849210242201
 72
     1
 10
0.4162333533533334
 20
0.1259849210242201
 11
0.4215505432416044
 21
0.1196416067715466
 72
     1
 10
0.4215505432416045
 20
0.1196416067715466
 11
0.4265878810304927
 21
0.113671428651383
 72
     1
 10
0.4265878810304931
 20
0.1136714286513832
 11
0.4312520826868704
 21
0.1079811026306024
 72
     1
 10
0.4312520826868696
 20
0.1079811026306024
 11
0.4355431482107378
 21
0.1029437648417141
 72
     1
 10
0.435543148210738
 20
0.1029437648417139
 11
0.4390879414695842
 21
0.0987459833509739
 72
     1
 10
0.4390879414695843
 20
0.0987459833509741
 11
0.4417931784302841
 21
0.0954810421915098
 72
     1
 10
0.4417931784302845
 20
0.0954810421915096
 11
0.4435655750597076
 21
0.0934287934627037
 72
     1
 10
0.4435655750597074
 20
0.0934287934627039
 11
0.4442185632915993
 21
0.0926825211976832
 72
     1
 10
0.4442185632915985
 20
0.0926825211976832
 11
0.4743493059918004
 21
0.0926825211976832
 72
     1
 10
0.4743493059918001
 20
0.0926825211976832
 11
0.4753754303562029
 21
0.0926825211976832
 72
     1
 10
0.4753754303562033
 20
0.0926825211976832
 11
0.5008419714000258
 21
0.0926825211976832
 72
     1
 10
0.5008419714000265
 20
0.0926825211976832
 11
0.5014949596319184
 21
0.0939884976614689
 72
     1
 10
0.501494959631919
 20
0.0939884976614688
 11
0.5031740722282155
 21
0.0973467228540609
 72
     1
 10
0.503174072228215
 20
0.0973467228540612
 11
0.5055061730564038
 21
0.1021042085435666
 72
     1
 10
0.505506173056403
 20
0.1021042085435665
 11
0.5083046940502291
 21
0.1077012505312196
 72
     1
 10
0.5083046940502292
 20
0.1077012505312194
 11
0.5111032150440553
 21
0.1134848605851279
 72
     1
 10
0.5111032150440549
 20
0.1134848605851281
 11
0.5137151679716264
 21
0.1186154824071433
 72
     1
 10
0.5137151679716277
 20
0.1186154824071433
 11
0.5156741326673071
 21
0.1226266958316283
 72
     1
 10
0.5156741326673076
 20
0.122626695831628
 11
0.5167002570317104
 21
0.1247722285935621
 72
     1
 10
0.5167002570317103
 20
0.1247722285935622
 11
0.5180062334954961
 21
0.1247722285935622
 72
     1
 10
0.5180062334954961
 20
0.1247722285935622
 11
0.5207114704561957
 21
0.1247722285935622
 72
     1
 10
0.5207114704561944
 20
0.1247722285935622
 11
0.5246293998475517
 21
0.1247722285935622
 72
     1
 10
0.5246293998475525
 20
0.1247722285935622
 11
0.5295734536033125
 21
0.1247722285935622
 72
     1
 10
0.5295734536033115
 20
0.1247722285935622
 11
0.5352637796240919
 21
0.1247722285935622
 72
     1
 10
0.5352637796240929
 20
0.1247722285935622
 11
0.5415138098436386
 21
0.1247722285935622
 72
     1
 10
0.5415138098436394
 20
0.1247722285935622
 11
0.5482302602288245
 21
0.1247722285935622
 72
     1
 10
0.5482302602288236
 20
0.1247722285935622
 11
0.5551332786802616
 21
0.1247722285935622
 72
     1
 10
0.5551332786802608
 20
0.1247722285935622
 11
0.5620362971317004
 21
0.1247722285935622
 72
     1
 10
0.5620362971317015
 20
0.1247722285935622
 11
0.5687527475168847
 21
0.1247722285935622
 72
     1
 10
0.5687527475168839
 20
0.1247722285935622
 11
0.5750027777364317
 21
0.1247722285935622
 72
     1
 10
0.5750027777364322
 20
0.1247722285935622
 11
0.5806931037572126
 21
0.1247722285935622
 72
     1
 10
0.5806931037572119
 20
0.1247722285935622
 11
0.585637157512972
 21
0.1247722285935622
 72
     1
 10
0.5856371575129727
 20
0.1247722285935622
 11
0.5895550869043299
 21
0.1247722285935622
 72
     1
 10
0.5895550869043289
 20
0.1247722285935622
 11
0.5922603238650286
 21
0.1247722285935622
 72
     1
 10
0.5922603238650291
 20
0.1247722285935622
 11
0.5935663003288148
 21
0.1247722285935622
 72
     1
 10
0.5935663003288148
 20
0.1247722285935622
 11
0.5945924246932176
 21
0.1226266958316281
 72
     1
 10
0.5945924246932175
 20
0.122626695831628
 11
0.5965513893888953
 21
0.1186154824071431
 72
     1
 10
0.5965513893888957
 20
0.1186154824071433
 11
0.5991633423164672
 21
0.1134848605851281
 72
     1
 10
0.5991633423164667
 20
0.1134848605851281
 11
0.6019618633102946
 21
0.1077012505312196
 72
     1
 10
0.6019618633102959
 20
0.1077012505312194
 11
0.604760384304122
 21
0.1021042085435664
 72
     1
 10
0.6047603843041221
 20
0.1021042085435665
 11
0.6070924851323109
 21
0.0973467228540611
 72
     1
 10
0.6070924851323101
 20
0.0973467228540612
 11
0.6087715977286067
 21
0.0939884976614691
 72
     1
 10
0.6087715977286062
 20
0.0939884976614688
 11
0.609424585960498
 21
0.0926825211976832
 72
     1
 10
0.6094245859604986
 20
0.0926825211976832
 11
0.6363836715343633
 21
0.0926825211976832
 72
     1
 10
0.6363836715343641
 20
0.0926825211976832
 11
0.5671669189537184
 21
0.2277578011663825
 72
     1
 10
0.5671669189537179
 20
0.2277578011663825
 11
0.5656743744236758
 21
0.2277578011663825
 97
        0
 75
     0
 76
     1
 98
        1
 10
-0.3743130907707726
 20
-0.2500502867693841
450
        0
451
        0
460
0.0
461
0.0
452
        0
462
0.0
453
        0
470

1001
ACAD
1010
0.0
1020
0.0
1030
0.0
  0
HATCH
  5
891D
330
8813
100
AcDbEntity
  8
Kawneer Logo-English
100
AcDbHatch
 10
0.0
 20
0.0
 30
0.0
210
0.0
220
0.0
230
1.0
  2
SOLID
 70
     1
 71
     0
 91
        1
 92
        1
 93
       69
 72
     1
 10
0.8092389849197205
 20
0.2277578011663825
 11
0.778921674153266
 21
0.1309289747799811
 72
     1
 10
0.778921674153267
 20
0.1309289747799809
 11
0.7781754018882468
 21
0.1287834420180468
 72
     1
 10
0.7781754018882468
 20
0.1287834420180467
 11
0.7776156976894812
 21
0.1270110453886236
 72
     1
 10
0.7776156976894813
 20
0.1270110453886237
 11
0.7771492775238438
 21
0.1253319327923275
 72
     1
 10
0.7771492775238436
 20
0.1253319327923274
 11
0.7766828573582045
 21
0.1238393882622867
 72
     1
 10
0.7766828573582046
 20
0.1238393882622866
 11
0.7764030052588217
 21
0.1248655126266895
 72
     1
 10
0.776403005258822
 20
0.1248655126266896
 11
0.7761231531594392
 21
0.1259849210242202
 72
     1
 10
0.7761231531594391
 20
0.1259849210242201
 11
0.7759365850931844
 21
0.1268244773223681
 72
     1
 10
0.7759365850931843
 20
0.1268244773223682
 11
0.7758433010600562
 21
0.1271976134548783
 72
     1
 10
0.7758433010600552
 20
0.1271976134548783
 11
0.7755634489606744
 21
0.1280371697530267
 72
     1
 10
0.775563448960674
 20
0.1280371697530267
 11
0.7750970287950349
 21
0.1291565781505569
 72
     1
 10
0.7750970287950363
 20
0.1291565781505568
 11
0.773977620397507
 21
0.1323282352768938
 72
     1
 10
0.7739776203975062
 20
0.1323282352768939
 11
0.7721119397349549
 21
0.1372722890326544
 72
     1
 10
0.7721119397349554
 20
0.1372722890326546
 11
0.7697798389067666
 21
0.1436156032853281
 72
     1
 10
0.769779838906767
 20
0.1436156032853281
 11
0.7670746019460673
 21
0.1511716099686602
 72
     1
 10
0.7670746019460668
 20
0.15117160996866
 11
0.7639962288528581
 21
0.1595671729501399
 72
     1
 10
0.7639962288528582
 20
0.15956717295014
 11
0.7606380036602665
 21
0.1686157241635125
 72
     1
 10
0.7606380036602652
 20
0.1686157241635125
 11
0.7572797784676718
 21
0.1778508434431408
 72
     1
 10
0.7572797784676726
 20
0.1778508434431408
 11
0.753921553275081
 21
0.187179246755896
 72
     1
 10
0.7539215532750814
 20
0.1871792467558961
 11
0.7505633280824898
 21
0.1962277979692689
 72
     1
 10
0.7505633280824902
 20
0.1962277979692689
 11
0.7474849549892814
 21
0.2046233609507488
 72
     1
 10
0.7474849549892797
 20
0.2046233609507488
 11
0.74477971802858
 21
0.2121793676340809
 72
     1
 10
0.7447797180285814
 20
0.2121793676340809
 11
0.7424476172003926
 21
0.2185226818867544
 72
     1
 10
0.7424476172003929
 20
0.2185226818867545
 11
0.7405819365378416
 21
0.2234667356425151
 72
     1
 10
0.7405819365378408
 20
0.2234667356425151
 11
0.7394625281403098
 21
0.2266383927688516
 72
     1
 10
0.7394625281403103
 20
0.2266383927688516
 11
0.7390893920078009
 21
0.2277578011663822
 72
     1
 10
0.7390893920078004
 20
0.2277578011663825
 11
0.7191266089185034
 21
0.2277578011663825
 72
     1
 10
0.7191266089185029
 20
0.2277578011663825
 11
0.6843316645619254
 21
0.1336342117406798
 72
     1
 10
0.6843316645619267
 20
0.1336342117406795
 11
0.6832122561643957
 21
0.130649122680598
 72
     1
 10
0.6832122561643961
 20
0.1306491226805981
 11
0.6823726998662476
 21
0.1282237378192816
 72
     1
 10
0.6823726998662468
 20
0.1282237378192818
 11
0.6817197116343549
 21
0.1260782050573481
 72
     1
 10
0.6817197116343552
 20
0.1260782050573481
 11
0.6811600074355896
 21
0.1241192403616695
 72
     1
 10
0.6811600074355884
 20
0.1241192403616695
 11
0.6808801553362055
 21
0.1250520806929446
 72
     1
 10
0.6808801553362059
 20
0.1250520806929445
 11
0.6805070192036949
 21
0.1261714890904751
 72
     1
 10
0.680507019203696
 20
0.1261714890904752
 11
0.6802271671043131
 21
0.1272908974880058
 72
     1
 10
0.680227167104313
 20
0.1272908974880061
 11
0.6798540309718037
 21
0.1286901579849195
 72
     1
 10
0.6798540309718031
 20
0.1286901579849194
 11
0.6794808948392922
 21
0.12980956638245
 72
     1
 10
0.6794808948392932
 20
0.1298095663824503
 11
0.6784547704748904
 21
0.1328879394756595
 72
     1
 10
0.67845477047489
 20
0.1328879394756595
 11
0.6769622259448497
 21
0.1378319932314196
 72
     1
 10
0.6769622259448496
 20
0.1378319932314196
 11
0.6750032612491701
 21
0.1441753074840938
 72
     1
 10
0.6750032612491697
 20
0.1441753074840937
 11
0.6725778763878547
 21
0.1516380301342981
 72
     1
 10
0.6725778763878556
 20
0.1516380301342981
 11
0.6699659234602841
 21
0.160033593115778
 72
     1
 10
0.6699659234602829
 20
0.160033593115778
 11
0.6671674024664549
 21
0.168988860296023
 72
     1
 10
0.6671674024664554
 20
0.168988860296023
 11
0.6642755974395012
 21
0.1782239795756509
 72
     1
 10
0.6642755974395019
 20
0.178223979575651
 11
0.6613837924125477
 21
0.1874590988552789
 72
     1
 10
0.6613837924125466
 20
0.1874590988552789
 11
0.6585852714187205
 21
0.1964143660355239
 72
     1
 10
0.6585852714187204
 20
0.1964143660355237
 11
0.6559733184911489
 21
0.2047166449838762
 72
     1
 10
0.6559733184911494
 20
0.2047166449838765
 11
0.6536412176629606
 21
0.2122726516672082
 72
     1
 10
0.6536412176629614
 20
0.2122726516672082
 11
0.6515889689341538
 21
0.2186159659198823
 72
     1
 10
0.6515889689341537
 20
0.2186159659198821
 11
0.6500964244041133
 21
0.2234667356425149
 72
     1
 10
0.6500964244041132
 20
0.2234667356425151
 11
0.6490703000397104
 21
0.2266383927688516
 72
     1
 10
0.6490703000397105
 20
0.2266383927688516
 11
0.6487904479403276
 21
0.2277578011663822
 72
     1
 10
0.648790447940328
 20
0.2277578011663825
 11
0.6237903270621445
 21
0.2277578011663825
 72
     1
 10
0.6237903270621437
 20
0.2277578011663825
 11
0.6676338226320932
 21
0.0926825211976832
 72
     1
 10
0.6676338226320926
 20
0.0926825211976832
 11
0.6922608073777669
 21
0.0926825211976832
 72
     1
 10
0.6922608073777666
 20
0.0926825211976832
 11
0.726029627369941
 21
0.1855001341596003
 72
     1
 10
0.7260296273699423
 20
0.1855001341596003
 11
0.7269624677012189
 21
0.1882986551534267
 72
     1
 10
0.7269624677012177
 20
0.1882986551534266
 11
0.7278020239993661
 21
0.1906307559816158
 72
     1
 10
0.727802023999367
 20
0.1906307559816159
 11
0.7284550122312589
 21
0.1927762887435496
 72
     1
 10
0.7284550122312581
 20
0.1927762887435495
 11
0.7290147164300237
 21
0.1947352534392281
 72
     1
 10
0.7290147164300232
 20
0.1947352534392282
 11
0.7298542727281716
 21
0.192216584544784
 72
     1
 10
0.729854272728173
 20
0.1922165845447839
 11
0.7306938290263214
 21
0.1894180635509575
 72
     1
 10
0.7306938290263206
 20
0.1894180635509575
 11
0.7318132374238499
 21
0.1863396904577483
 72
     1
 10
0.7318132374238511
 20
0.1863396904577481
 11
0.7331192138876387
 21
0.1827016131657736
 72
     1
 10
0.7331192138876382
 20
0.1827016131657737
 11
0.7654887733828987
 21
0.0926825211976834
 72
     1
 10
0.7654887733828986
 20
0.0926825211976832
 11
0.7895560539298075
 21
0.0926825211976832
 72
     1
 10
0.7895560539298075
 20
0.0926825211976832
 11
0.8341458217647785
 21
0.2277578011663825
 72
     1
 10
0.8341458217647783
 20
0.2277578011663825
 11
0.830601028505932
 21
0.2277578011663825
 72
     1
 10
0.8306010285059324
 20
0.2277578011663825
 11
0.8092389849197216
 21
0.2277578011663825
 97
        0
 75
     0
 76
     1
 98
        1
 10
-0.3743130907707726
 20
-0.2500502867693841
450
        0
451
        0
460
0.0
461
0.0
452
        0
462
0.0
453
        0
470

1001
ACAD
1010
0.0
1020
0.0
1030
0.0
  0
ENDBLK
  5
8820
330
8813
100
AcDbEntity
  8
0
100
AcDbBlockEnd
  0
ENDSEC
  0
SECTION
  2
ENTITIES
  0
MTEXT
  5
B179
330
17
100
AcDbEntity
  8
0
 62
     2
100
AcDbMText
 10
30.96320940626617
 20
5.790806835475024
 30
0.0
 40
0.4375
 41
9.6875
 46
0.0
 71
     2
 72
     5
  1
DETAIL SCALE: 1" = 1"
 73
     1
 44
1.0
  0
LWPOLYLINE
  5
B17A
330
17
100
AcDbEntity
  8
FORMAT
100
AcDbPolyline
 90
        3
 70
     0
 43
0.0
 10
70.4877891017552
 20
0.0
 10
0.0
 20
0.0
 10
0.0
 20
42.77884388432799
  0
MTEXT
  5
B17B
330
17
100
AcDbEntity
  8
0
 62
     2
100
AcDbMText
 10
31.31595529758431
 20
8.969158520796284
 30
0.0
 40
0.5
 41
14.21875
 46
0.0
 71
     2
 72
     5
  1
\A1;1600 WALL SYSTEM{\H0.7x;\S®^ ;} 1 CURTAIN WALL\P10 1/2" DEEP (1/4" INFILL)\PTYPICAL SPLICE DETAILS
 73
     1
 44
1.0
  0
TEXT
  5
B17C
330
17
100
AcDbEntity
  8
0
  6
Continuous
 62
     7
100
AcDbText
 10
11.16636043481532
 20
16.42545981227992
 30
0.0
 40
0.375
  1
WITHOUT HORIZONTAL - 1/4" INFILL
 72
     1
 11
15.69807939798039
 21
16.42545981227992
 31
0.0
100
AcDbText
  0
TEXT
  5
B17D
330
17
100
AcDbEntity
  8
0
  6
Continuous
 62
     2
100
AcDbText
 10
12.96166128498344
 20
17.22877858265969
 30
0.0
 40
0.375
  1
SPLICE JOINT DETAIL
 72
     1
 11
15.7126418443286
 21
17.22877858265969
 31
0.0
100
AcDbText
  0
TEXT
  5
B17E
330
17
100
AcDbEntity
  8
0
  6
Continuous
 62
     2
100
AcDbText
 10
31.36584701266213
 20
17.22877858265969
 30
0.0
 40
0.375
  1
@ JAMB SPLICE JOINT
 72
     1
 11
34.23705267432652
 21
17.22877858265969
 31
0.0
100
AcDbText
  0
TEXT
  5
B17F
330
17
100
AcDbEntity
  8
0
  6
Continuous
 62
     7
100
AcDbText
 10
31.22709459359905
 20
16.42545981227992
 30
0.0
 40
0.375
  1
1/4" FRAME - 1/4" INFILL
 72
     1
 11
34.22249022797831
 21
16.42545981227992
 31
0.0
100
AcDbText
  0
LINE
  5
B180
330
17
100
AcDbEntity
  8
R-ANNO-DIMS
100
AcDbLine
 10
15.35536940112629
 20
23.70443654963138
 30
0.0
 11
23.69211242715284
 21
23.70443654963138
 31
0.0
  0
LINE
  5
B181
330
17
100
AcDbEntity
  8
R-ANNO-DIMS
100
AcDbLine
 10
15.35536940112629
 20
24.82943654963138
 30
0.0
 11
22.87329527699871
 21
24.82943654963138
 31
0.0
  0
LINE
  5
B182
330
17
100
AcDbEntity
  8
R-ANNO-DIMS
100
AcDbLine
 10
11.29286940112629
 20
31.95443654963138
 30
0.0
 11
21.29286940112629
 21
31.95443654963138
 31
0.0
  0
LINE
  5
B183
330
17
100
AcDbEntity
  8
R-SWTS-DET2
  6
HIDDEN
100
AcDbLine
 10
13.75836940112632
 20
30.05493654963141
 30
0.0
 11
21.13336940112632
 21
30.05493654963138
 31
0.0
  0
LINE
  5
B184
330
17
100
AcDbEntity
  8
R-SWTS-DET2
  6
HIDDEN
100
AcDbLine
 10
13.75836940112632
 20
29.55493654963141
 30
0.0
 11
21.13336940112632
 21
29.55493654963138
 31
0.0
  0
LINE
  5
B185
330
17
100
AcDbEntity
  8
R-SWTS-DET2
100
AcDbLine
 10
13.75836940112632
 20
27.17993654963141
 30
0.0
 11
21.13336940112632
 21
27.17993654963139
 31
0.0
  0
LINE
  5
B186
330
17
100
AcDbEntity
  8
HIDDEN
100
AcDbLine
 10
13.75836940112632
 20
26.92993654963141
 30
0.0
 11
21.13336940112632
 21
26.92993654963139
 31
0.0
  0
LINE
  5
B187
330
17
100
AcDbEntity
  8
R-SWTS-DET2
  6
HIDDEN
100
AcDbLine
 10
13.75836940112632
 20
24.55493654963141
 30
0.0
 11
21.13336940112632
 21
24.55493654963138
 31
0.0
  0
LINE
  5
B188
330
17
100
AcDbEntity
  8
R-SWTS-DET2
  6
HIDDEN
100
AcDbLine
 10
13.75836940112632
 20
24.05493654963141
 30
0.0
 11
21.13336940112632
 21
24.05493654963139
 31
0.0
  0
LWPOLYLINE
  5
B189
330
17
100
AcDbEntity
  8
R-SWTS-DET1
100
AcDbPolyline
 90
        6
 70
     0
 43
0.0
 10
10.79286940112629
 20
30.70443654963138
 10
16.19911940112629
 20
30.70443654963138
 10
16.25218798286278
 20
30.91665174261359
 10
16.35973907086398
 20
30.49223700162341
 10
16.41280765260046
 20
30.70445219460562
 10
21.81905765260046
 20
30.70445219460562
  0
LWPOLYLINE
  5
B18A
330
17
100
AcDbEntity
  8
R-SWTS-DET1
100
AcDbPolyline
 90
        6
 70
     0
 43
0.0
 10
10.79286940112629
 20
19.45443654963138
 10
16.19911940112629
 20
19.45443654963138
 10
16.25218798286278
 20
19.66665174261359
 10
16.35973907086398
 20
19.24223700162341
 10
16.41280765260046
 20
19.45445219460562
 10
21.81905765260046
 20
19.45445219460562
  0
LINE
  5
B18B
330
17
100
AcDbEntity
  8
R-SWTS-DET1
100
AcDbLine
 10
12.41785345612697
 20
26.95443654963138
 30
0.0
 11
21.54286940112627
 21
26.95443654963138
 31
0.0
  0
LINE
  5
B18C
330
17
100
AcDbEntity
  8
R-SWTS-DET2
  6
HIDDEN
100
AcDbLine
 10
13.63336940112631
 20
23.80493654963139
 30
0.0
 11
21.25836940112632
 21
23.80493654963137
 31
0.0
  0
LINE
  5
B18D
330
17
100
AcDbEntity
  8
R-SWTS-DET1
100
AcDbLine
 10
12.41785345612697
 20
27.45443654963138
 30
0.0
 11
21.54286940112627
 21
27.45443654963138
 31
0.0
  0
LINE
  5
B18E
330
17
100
AcDbEntity
  8
R-SWTS-DET2
  6
HIDDEN
100
AcDbLine
 10
13.63336940112631
 20
30.30493654963139
 30
0.0
 11
21.25836940112632
 21
30.30493654963136
 31
0.0
  0
LINE
  5
B18F
330
17
100
AcDbEntity
  8
R-ANNO-DIMS
100
AcDbLine
 10
7.417869401126296
 20
26.70443654963138
 30
0.0
 11
7.417869401126296
 21
19.70443654963138
 31
0.0
  0
MTEXT
  5
B190
330
17
100
AcDbEntity
  8
R-ANNO-DIMS
100
AcDbMText
 10
8.425253754809688
 20
26.20443654963138
 30
0.0
 40
0.25
 41
0.0
 46
0.0
 71
     5
 72
     1
  1
\A1;1 1/2"
 11
0.0000000000000001
 21
1.0
 31
0.0
 73
     1
 44
1.0
  0
LINE
  5
B191
330
17
100
AcDbEntity
  8
R-ANNO-DIMS
100
AcDbLine
 10
8.650253754809682
 20
26.70443654963138
 30
0.0
 11
8.650253754809682
 21
25.70443654963138
 31
0.0
  0
LINE
  5
B192
330
17
100
AcDbEntity
  8
R-ANNO-DIMS
100
AcDbLine
 10
8.042869401126296
 20
21.20443654963138
 30
0.0
 11
8.042869401126296
 21
26.70443654963138
 31
0.0
  0
LINE
  5
B193
330
17
100
AcDbEntity
  8
R-SWTS-DET2
  6
HIDDEN
100
AcDbLine
 10
13.75836940112632
 20
23.80493654963139
 30
0.0
 11
13.75836940112632
 21
26.95443654963138
 31
0.0
  0
ARC
  5
B194
330
17
100
AcDbEntity
  8
R-SWTS-DET3
  6
HIDDEN
100
AcDbCircle
 10
10.42392390956388
 20
25.70443654963137
 30
0.0
 40
0.875
100
AcDbArc
 50
343.39845040098
 51
16.60154959901999
  0
ARC
  5
B195
330
17
100
AcDbEntity
  8
R-SWTS-DET3
  6
HIDDEN
100
AcDbCircle
 10
10.67392390956391
 20
25.70443654963139
 30
0.0
 40
0.875
100
AcDbArc
 50
343.39845040098
 51
16.60154959901999
  0
ARC
  5
B196
330
17
100
AcDbEntity
  8
R-SWTS-DET3
  6
HIDDEN
100
AcDbCircle
 10
10.79892390956391
 20
25.70443654963139
 30
0.0
 40
0.875
100
AcDbArc
 50
343.39845040098
 51
16.60154959901999
  0
ARC
  5
B197
330
17
100
AcDbEntity
  8
R-SWTS-DET3
  6
HIDDEN
100
AcDbCircle
 10
10.54892390956388
 20
25.70443654963137
 30
0.0
 40
0.875
100
AcDbArc
 50
343.39845040098
 51
16.60154959901999
  0
LINE
  5
B198
330
17
100
AcDbEntity
  8
R-SWTS-DET2
  6
HIDDEN
100
AcDbLine
 10
13.63336940112631
 20
23.80493654963139
 30
0.0
 11
13.63336940112631
 21
30.30493654963139
 31
0.0
  0
LINE
  5
B199
330
17
100
AcDbEntity
  8
R-SWTS-DET1
100
AcDbLine
 10
11.04286940112629
 20
21.45443654963138
 30
0.0
 11
11.04286940112629
 21
30.70443654963138
 31
0.0
  0
LINE
  5
B19A
330
17
100
AcDbEntity
  8
R-SWTS-DET1
100
AcDbLine
 10
13.29286940112629
 20
19.45443654963138
 30
0.0
 11
13.29286940112629
 21
30.70443454963137
 31
0.0
  0
LINE
  5
B19B
330
17
100
AcDbEntity
  8
R-SWTS-DET1
  6
HIDDEN
100
AcDbLine
 10
11.25686940112629
 20
19.45443654963138
 30
0.0
 11
11.25686940112629
 21
30.70443454963137
 31
0.0
  0
LINE
  5
B19C
330
17
100
AcDbEntity
  8
R-SWTS-DET1
  6
HIDDEN
100
AcDbLine
 10
11.79286940112629
 20
19.45443654963138
 30
0.0
 11
11.79286940112629
 21
30.70443454963137
 31
0.0
  0
LINE
  5
B19D
330
17
100
AcDbEntity
  8
R-SWTS-DET1
100
AcDbLine
 10
11.50311447910243
 20
19.45443654963138
 30
0.0
 11
11.50311447910243
 21
30.70443454963137
 31
0.0
  0
LINE
  5
B19E
330
17
100
AcDbEntity
  8
R-SWTS-DET1
100
AcDbLine
 10
12.04286940112629
 20
19.45443654963138
 30
0.0
 11
12.04286940112629
 21
30.70443454963137
 31
0.0
  0
LINE
  5
B19F
330
17
100
AcDbEntity
  8
R-SWTS-DET1
100
AcDbLine
 10
12.29286940112629
 20
19.45443654963138
 30
0.0
 11
12.29286940112629
 21
30.70443454963137
 31
0.0
  0
LINE
  5
B1A0
330
17
100
AcDbEntity
  8
R-SWTS-DET1
100
AcDbLine
 10
12.83262432315015
 20
19.45443654963138
 30
0.0
 11
12.83262432315015
 21
30.70443454963137
 31
0.0
  0
LINE
  5
B1A1
330
17
100
AcDbEntity
  8
R-SWTS-DET1
  6
HIDDEN
100
AcDbLine
 10
12.54286940112629
 20
19.45443654963138
 30
0.0
 11
12.54286940112629
 21
30.70443454963137
 31
0.0
  0
LINE
  5
B1A2
330
17
100
AcDbEntity
  8
HIDDEN
100
AcDbLine
 10
11.78744940112631
 20
25.45443654963138
 30
0.0
 11
11.2624494011263
 21
25.45443654963138
 31
0.0
  0
LINE
  5
B1A3
330
17
100
AcDbEntity
  8
R-SWTS-DET1
100
AcDbLine
 10
11.04286940112629
 20
20.95443654963138
 30
0.0
 11
11.50311447910243
 21
20.95443654963138
 31
0.0
  0
LINE
  5
B1A4
330
17
100
AcDbEntity
  8
R-SWTS-DET2
  6
HIDDEN
100
AcDbLine
 10
11.04286940112629
 20
21.45443654963138
 30
0.0
 11
11.50311447910243
 21
21.45443654963138
 31
0.0
  0
LINE
  5
B1A5
330
17
100
AcDbEntity
  8
R-SWTS-DET2
  6
HIDDEN
100
AcDbLine
 10
11.10536940112629
 20
22.45443654963138
 30
0.0
 11
11.54286940112629
 21
22.45443654963138
 31
0.0
  0
LINE
  5
B1A6
330
17
100
AcDbEntity
  8
R-SWTS-DET2
  6
HIDDEN
100
AcDbLine
 10
11.10536940112629
 20
19.95443654963138
 30
0.0
 11
11.54286940112629
 21
19.95443654963138
 31
0.0
  0
LINE
  5
B1A7
330
17
100
AcDbEntity
  8
R-SWTS-DET1
100
AcDbLine
 10
11.04286940112629
 20
19.45443654963138
 30
0.0
 11
11.04286940112629
 21
20.95443654963138
 31
0.0
  0
LINE
  5
B1A8
330
17
100
AcDbEntity
  8
R-SWTS-DET2
  6
HIDDEN
100
AcDbLine
 10
11.10536940112629
 20
19.95443654963138
 30
0.0
 11
11.10536940112629
 21
20.95443654963138
 31
0.0
  0
SOLID
  5
B1A9
330
17
100
AcDbEntity
  8
R-ANNO-DIMS
100
AcDbTrace
 10
7.376202734459639
 20
19.70443654963138
 30
0.0
 11
7.459536067792953
 21
19.70443654963138
 31
0.0
 12
7.417869401126296
 22
19.45443654963138
 32
0.0
 13
7.417869401126296
 23
19.45443654963138
 33
0.0
  0
MTEXT
  5
B1AA
330
17
100
AcDbEntity
  8
R-ANNO-DIMS
100
AcDbMText
 10
7.817869401126301
 20
23.95443654963138
 30
0.0
 40
0.25
 41
0.0
 46
0.0
 71
     5
 72
     1
  1
\A1;6"
 11
0.0000000000000001
 21
1.0
 31
0.0
 73
     1
 44
1.0
  0
MTEXT
  5
B1AB
330
17
100
AcDbEntity
  8
R-ANNO-DIMS
100
AcDbMText
 10
7.192869401126301
 20
23.20443654963138
 30
0.0
 40
0.25
 41
0.0
 46
0.0
 71
     5
 72
     1
  1
\A1;M.L. & ANCH. REF.
 11
0.0000000000000001
 21
1.0
 31
0.0
 73
     1
 44
1.0
  0
LINE
  5
B1AC
330
17
100
AcDbEntity
  8
R-ANNO-DIMS
100
AcDbLine
 10
10.66786940112629
 20
21.45443654963138
 30
0.0
 11
8.487869401126289
 21
21.45443654963138
 31
0.0
  0
LINE
  5
B1AD
330
17
100
AcDbEntity
  8
R-ANNO-DIMS
100
AcDbLine
 10
10.66786940112629
 20
20.95443654963138
 30
0.0
 11
8.487869401126289
 21
20.95443654963138
 31
0.0
  0
LINE
  5
B1AE
330
17
100
AcDbEntity
  8
R-ANNO-DIMS
100
AcDbLine
 10
10.66786940112629
 20
20.95443654963138
 30
0.0
 11
7.862869401126289
 21
20.95443654963138
 31
0.0
  0
LINE
  5
B1AF
330
17
100
AcDbEntity
  8
R-ANNO-DIMS
100
AcDbLine
 10
8.542869401126296
 20
21.45443654963138
 30
0.0
 11
10.90151437623578
 21
21.45443654963138
 31
0.0
  0
LINE
  5
B1B0
330
17
100
AcDbEntity
  8
R-ANNO-DIMS
100
AcDbLine
 10
8.667869401126296
 20
21.70443654963138
 30
0.0
 11
8.667869401126296
 21
22.98776988296471
 31
0.0
  0
SOLID
  5
B1B1
330
17
100
AcDbEntity
  8
R-ANNO-DIMS
100
AcDbTrace
 10
8.00120273445961
 20
21.20443654963138
 30
0.0
 11
8.084536067792953
 21
21.20443654963138
 31
0.0
 12
8.042869401126296
 22
20.95443654963138
 32
0.0
 13
8.042869401126296
 23
20.95443654963138
 33
0.0
  0
SOLID
  5
B1B2
330
17
100
AcDbEntity
  8
R-ANNO-DIMS
100
AcDbTrace
 10
8.626202734459639
 20
20.70443654963138
 30
0.0
 11
8.709536067792953
 21
20.70443654963138
 31
0.0
 12
8.667869401126296
 22
20.95443654963138
 32
0.0
 13
8.667869401126296
 23
20.95443654963138
 33
0.0
  0
LINE
  5
B1B3
330
17
100
AcDbEntity
  8
R-ANNO-DIMS
100
AcDbLine
 10
8.667869401126296
 20
20.70443654963138
 30
0.0
 11
8.667869401126296
 21
20.45443654963138
 31
0.0
  0
SOLID
  5
B1B4
330
17
100
AcDbEntity
  8
R-ANNO-DIMS
100
AcDbTrace
 10
8.626202734459639
 20
21.70443654963138
 30
0.0
 11
8.709536067792953
 21
21.70443654963138
 31
0.0
 12
8.667869401126296
 22
21.45443654963138
 32
0.0
 13
8.667869401126296
 23
21.45443654963138
 33
0.0
  0
MTEXT
  5
B1B5
330
17
100
AcDbEntity
  8
R-ANNO-DIMS
100
AcDbMText
 10
8.442869401126301
 20
22.47110321629805
 30
0.0
 40
0.25
 41
0.0
 46
0.0
 71
     5
 72
     1
  1
\A1;1/2"
 11
0.0000000000000001
 21
1.0
 31
0.0
 73
     1
 44
1.0
  0
LINE
  5
B1B6
330
17
100
AcDbEntity
  8
R-SWTS-DET2
  6
HIDDEN
100
AcDbLine
 10
11.10536940112629
 20
21.45443654963138
 30
0.0
 11
11.10536940112629
 21
22.45443654963138
 31
0.0
  0
LINE
  5
B1B7
330
17
100
AcDbEntity
  8
R-SWTS-DET2
100
AcDbLine
 10
11.10536940112629
 20
21.45443654963138
 30
0.0
 11
11.10536940112629
 21
20.95443654963138
 31
0.0
  0
LINE
  5
B1B8
330
17
100
AcDbEntity
  8
R-ANNO-DIMS
100
AcDbLine
 10
10.8874494011263
 20
25.45443654963138
 30
0.0
 11
8.470253754809704
 21
25.45443654963138
 31
0.0
  0
LINE
  5
B1B9
330
17
100
AcDbEntity
  8
R-ANNO-DIMS
100
AcDbLine
 10
10.8874494011263
 20
25.45443654963138
 30
0.0
 11
9.112869401126289
 21
25.45443654963138
 31
0.0
  0
LINE
  5
B1BA
330
17
100
AcDbEntity
  8
R-ANNO-DIMS
100
AcDbLine
 10
9.167869401126296
 20
25.45443654963138
 30
0.0
 11
11.14782450586477
 21
25.45443654963138
 31
0.0
  0
MTEXT
  5
B1BB
330
17
100
AcDbEntity
  8
R-ANNO-DIMS
100
AcDbMText
 10
9.067869401126301
 20
24.43776988296472
 30
0.0
 40
0.25
 41
0.0
 46
0.0
 71
     5
 72
     1
  1
\A1;1/2"
 11
0.0000000000000001
 21
1.0
 31
0.0
 73
     1
 44
1.0
  0
LINE
  5
B1BC
330
17
100
AcDbEntity
  8
R-ANNO-DIMS
100
AcDbLine
 10
9.292869401126296
 20
25.20443654963138
 30
0.0
 11
9.292869401126296
 21
23.92110321629805
 31
0.0
  0
SOLID
  5
B1BD
330
17
100
AcDbEntity
  8
R-ANNO-DIMS
100
AcDbTrace
 10
8.608587088143025
 20
25.70443654963138
 30
0.0
 11
8.691920421476368
 21
25.70443654963138
 31
0.0
 12
8.650253754809682
 22
25.45443654963138
 32
0.0
 13
8.650253754809682
 23
25.45443654963138
 33
0.0
  0
SOLID
  5
B1BE
330
17
100
AcDbEntity
  8
R-ANNO-DIMS
100
AcDbTrace
 10
9.251202734459639
 20
25.20443654963138
 30
0.0
 11
9.334536067792953
 21
25.20443654963138
 31
0.0
 12
9.292869401126296
 22
25.45443654963138
 32
0.0
 13
9.292869401126296
 23
25.45443654963138
 33
0.0
  0
LINE
  5
B1BF
330
17
100
AcDbEntity
  8
R-SWTS-DET2
  6
HIDDEN
100
AcDbLine
 10
11.54286940112629
 20
19.95443654963138
 30
0.0
 11
11.54286940112629
 21
22.45443654963138
 31
0.0
  0
LINE
  5
B1C0
330
17
100
AcDbEntity
  8
R-ANNO-DIMS
100
AcDbLine
 10
14.91786940112629
 20
21.84481249109762
 30
0.0
 11
16.70120273445963
 21
21.84481249109762
 31
0.0
  0
LINE
  5
B1C1
330
17
100
AcDbEntity
  8
R-ANNO-DIMS
100
AcDbLine
 10
13.0428694011263
 20
21.84481249109762
 30
0.0
 11
12.79286940112629
 21
21.84481249109762
 31
0.0
  0
LINE
  5
B1C2
330
17
100
AcDbEntity
  8
R-ANNO-DIMS
100
AcDbLine
 10
13.29286940112629
 20
22.21981249109762
 30
0.0
 11
13.29286940112629
 21
22.02481249109762
 31
0.0
  0
SOLID
  5
B1C3
330
17
100
AcDbEntity
  8
R-ANNO-DIMS
100
AcDbTrace
 10
13.0428694011263
 20
21.88647915776428
 30
0.0
 11
13.0428694011263
 21
21.80314582443096
 31
0.0
 12
13.29286940112629
 22
21.84481249109762
 32
0.0
 13
13.29286940112629
 23
21.84481249109762
 33
0.0
  0
LINE
  5
B1C4
330
17
100
AcDbEntity
  8
R-ANNO-DIMS
100
AcDbLine
 10
14.66786940112629
 20
23.01693654963138
 30
0.0
 11
14.66786940112629
 21
21.66481249109762
 31
0.0
  0
SOLID
  5
B1C5
330
17
100
AcDbEntity
  8
R-ANNO-DIMS
100
AcDbTrace
 10
14.91786940112629
 20
21.88647915776428
 30
0.0
 11
14.91786940112629
 21
21.80314582443096
 31
0.0
 12
14.66786940112629
 22
21.84481249109762
 32
0.0
 13
14.66786940112629
 23
21.84481249109762
 33
0.0
  0
ARC
  5
B1C6
330
17
100
AcDbEntity
  8
R-SWTS-DET3
100
AcDbCircle
 10
10.92392390956391
 20
25.70443654963139
 30
0.0
 40
0.875
100
AcDbArc
 50
343.39845040098
 51
353.2470183106531
  0
LINE
  5
B1C7
330
17
100
AcDbEntity
  8
R-SWTS-DET2
100
AcDbLine
 10
14.66786940112629
 20
23.39193654963138
 30
0.0
 11
14.66786940112629
 21
24.01693654963138
 31
0.0
  0
ARC
  5
B1C8
330
17
100
AcDbEntity
  8
R-SWTS-DET2
100
AcDbCircle
 10
14.66786940112629
 20
23.70443654963138
 30
0.0
 40
0.136
100
AcDbArc
 50
349.1930771251396
 51
10.80692287486041
  0
ARC
  5
B1C9
330
17
100
AcDbEntity
  8
R-SWTS-DET2
100
AcDbCircle
 10
14.66786940112629
 20
23.70443654963138
 30
0.0
 40
0.136
100
AcDbArc
 50
169.1930771251396
 51
190.8069228748603
  0
CIRCLE
  5
B1CA
330
17
100
AcDbEntity
  8
R-SWTS-DET2
100
AcDbCircle
 10
14.66786940112629
 20
23.70443654963138
 30
0.0
 40
0.2125
  0
CIRCLE
  5
B1CB
330
17
100
AcDbEntity
  8
R-SWTS-DET2
100
AcDbCircle
 10
14.66786940112629
 20
23.70443654963138
 30
0.0
 40
0.0865
  0
LINE
  5
B1CC
330
17
100
AcDbEntity
  8
R-SWTS-DET2
100
AcDbLine
 10
14.35536940112629
 20
23.70443654963138
 30
0.0
 11
14.98036940112629
 21
23.70443654963138
 31
0.0
  0
LINE
  5
B1CD
330
17
100
AcDbEntity
  8
R-SWTS-DET2
100
AcDbLine
 10
14.69336940112629
 20
23.67893654963138
 30
0.0
 11
14.80145738711306
 21
23.67893654963138
 31
0.0
  0
ARC
  5
B1CE
330
17
100
AcDbEntity
  8
R-SWTS-DET2
100
AcDbCircle
 10
14.66786940112629
 20
23.70443654963138
 30
0.0
 40
0.136
100
AcDbArc
 50
259.1930771251397
 51
280.8069228748603
  0
LINE
  5
B1CF
330
17
100
AcDbEntity
  8
R-SWTS-DET2
100
AcDbLine
 10
14.69336940112629
 20
23.57084856364462
 30
0.0
 11
14.69336940112629
 21
23.67893654963138
 31
0.0
  0
LINE
  5
B1D0
330
17
100
AcDbEntity
  8
R-SWTS-DET2
100
AcDbLine
 10
14.6423694011263
 20
23.57084856364462
 30
0.0
 11
14.6423694011263
 21
23.67893654963138
 31
0.0
  0
LINE
  5
B1D1
330
17
100
AcDbEntity
  8
R-SWTS-DET2
100
AcDbLine
 10
14.53428141513953
 20
23.67893654963138
 30
0.0
 11
14.6423694011263
 21
23.67893654963138
 31
0.0
  0
LINE
  5
B1D2
330
17
100
AcDbEntity
  8
R-SWTS-DET2
100
AcDbLine
 10
14.69336940112629
 20
23.72993654963138
 30
0.0
 11
14.80145738711306
 21
23.72993654963138
 31
0.0
  0
LINE
  5
B1D3
330
17
100
AcDbEntity
  8
R-SWTS-DET2
100
AcDbLine
 10
14.6423694011263
 20
23.72993654963138
 30
0.0
 11
14.6423694011263
 21
23.83802453561814
 31
0.0
  0
LINE
  5
B1D4
330
17
100
AcDbEntity
  8
R-SWTS-DET2
100
AcDbLine
 10
14.69336940112629
 20
23.72993654963138
 30
0.0
 11
14.69336940112629
 21
23.83802453561814
 31
0.0
  0
ARC
  5
B1D5
330
17
100
AcDbEntity
  8
R-SWTS-DET2
100
AcDbCircle
 10
14.66786940112629
 20
23.70443654963138
 30
0.0
 40
0.136
100
AcDbArc
 50
79.19307712513966
 51
100.8069228748603
  0
LINE
  5
B1D6
330
17
100
AcDbEntity
  8
R-SWTS-DET2
100
AcDbLine
 10
14.53428141513953
 20
23.72993654963138
 30
0.0
 11
14.6423694011263
 21
23.72993654963138
 31
0.0
  0
LINE
  5
B1D7
330
17
100
AcDbEntity
  8
R-SWTS-DET2
100
AcDbLine
 10
14.66786940112629
 20
24.39030035298341
 30
0.0
 11
14.66786940112629
 21
24.14030035298341
 31
0.0
  0
LINE
  5
B1D8
330
17
100
AcDbEntity
  8
R-SWTS-DET2
100
AcDbLine
 10
14.66786940112629
 20
24.51693654963138
 30
0.0
 11
14.66786940112629
 21
25.14193654963138
 31
0.0
  0
LINE
  5
B1D9
330
17
100
AcDbEntity
  8
R-SWTS-DET2
100
AcDbLine
 10
14.35536940112629
 20
24.82943654963138
 30
0.0
 11
14.98036940112629
 21
24.82943654963138
 31
0.0
  0
LINE
  5
B1DA
330
17
100
AcDbEntity
  8
R-SWTS-DET2
100
AcDbLine
 10
14.69336940112629
 20
24.85493654963138
 30
0.0
 11
14.80145738711306
 21
24.85493654963138
 31
0.0
  0
LINE
  5
B1DB
330
17
100
AcDbEntity
  8
R-SWTS-DET2
100
AcDbLine
 10
14.69336940112629
 20
24.80393654963138
 30
0.0
 11
14.80145738711306
 21
24.80393654963138
 31
0.0
  0
CIRCLE
  5
B1DC
330
17
100
AcDbEntity
  8
R-SWTS-DET2
100
AcDbCircle
 10
14.66786940112629
 20
24.82943654963138
 30
0.0
 40
0.2125
  0
CIRCLE
  5
B1DD
330
17
100
AcDbEntity
  8
R-SWTS-DET2
100
AcDbCircle
 10
14.66786940112629
 20
24.82943654963138
 30
0.0
 40
0.0865
  0
LINE
  5
B1DE
330
17
100
AcDbEntity
  8
R-SWTS-DET2
100
AcDbLine
 10
14.69336940112629
 20
24.69584856364462
 30
0.0
 11
14.69336940112629
 21
24.80393654963138
 31
0.0
  0
LINE
  5
B1DF
330
17
100
AcDbEntity
  8
R-SWTS-DET2
100
AcDbLine
 10
14.6423694011263
 20
24.69584856364462
 30
0.0
 11
14.6423694011263
 21
24.80393654963138
 31
0.0
  0
ARC
  5
B1E0
330
17
100
AcDbEntity
  8
R-SWTS-DET2
100
AcDbCircle
 10
14.66786940112629
 20
24.82943654963138
 30
0.0
 40
0.136
100
AcDbArc
 50
259.1930771251397
 51
280.8069228748603
  0
LINE
  5
B1E1
330
17
100
AcDbEntity
  8
R-SWTS-DET2
100
AcDbLine
 10
14.6423694011263
 20
24.85493654963138
 30
0.0
 11
14.6423694011263
 21
24.96302453561815
 31
0.0
  0
LINE
  5
B1E2
330
17
100
AcDbEntity
  8
R-SWTS-DET2
100
AcDbLine
 10
14.69336940112629
 20
24.85493654963138
 30
0.0
 11
14.69336940112629
 21
24.96302453561815
 31
0.0
  0
ARC
  5
B1E3
330
17
100
AcDbEntity
  8
R-SWTS-DET2
100
AcDbCircle
 10
14.66786940112629
 20
24.82943654963138
 30
0.0
 40
0.136
100
AcDbArc
 50
79.19307712513966
 51
100.8069228748603
  0
LINE
  5
B1E4
330
17
100
AcDbEntity
  8
R-SWTS-DET2
100
AcDbLine
 10
14.53428141513953
 20
24.85493654963138
 30
0.0
 11
14.6423694011263
 21
24.85493654963138
 31
0.0
  0
LINE
  5
B1E5
330
17
100
AcDbEntity
  8
R-SWTS-DET2
100
AcDbLine
 10
14.53428141513953
 20
24.80393654963138
 30
0.0
 11
14.6423694011263
 21
24.80393654963138
 31
0.0
  0
ARC
  5
B1E6
330
17
100
AcDbEntity
  8
R-SWTS-DET2
100
AcDbCircle
 10
14.66786940112629
 20
24.82943654963138
 30
0.0
 40
0.136
100
AcDbArc
 50
169.1930771251396
 51
190.8069228748603
  0
ARC
  5
B1E7
330
17
100
AcDbEntity
  8
R-SWTS-DET2
100
AcDbCircle
 10
14.66786940112629
 20
24.82943654963138
 30
0.0
 40
0.136
100
AcDbArc
 50
349.1930771251396
 51
10.80692287486041
  0
MTEXT
  5
B1E8
330
17
100
AcDbEntity
  8
R-ANNO-DIMS
100
AcDbMText
 10
15.93453606779295
 20
22.06981249109762
 30
0.0
 40
0.25
 41
0.0
 46
0.0
 71
     5
 72
     1
  1
\A1;1 3/8"
 73
     1
 44
1.0
  0
CIRCLE
  5
B1E9
330
17
100
AcDbEntity
  8
R-SWTS-DET2
100
AcDbCircle
 10
16.16786940112629
 20
23.70443654963138
 30
0.0
 40
0.0865
  0
CIRCLE
  5
B1EA
330
17
100
AcDbEntity
  8
R-SWTS-DET2
100
AcDbCircle
 10
16.16786940112629
 20
24.82943654963138
 30
0.0
 40
0.0865
  0
CIRCLE
  5
B1EB
330
17
100
AcDbEntity
  8
R-SWTS-DET2
100
AcDbCircle
 10
17.66786940112629
 20
23.70443654963138
 30
0.0
 40
0.0865
  0
CIRCLE
  5
B1EC
330
17
100
AcDbEntity
  8
R-SWTS-DET2
100
AcDbCircle
 10
17.66786940112629
 20
24.82943654963138
 30
0.0
 40
0.0865
  0
LINE
  5
B1ED
330
17
100
AcDbEntity
  8
R-ANNO-DIMS
100
AcDbLine
 10
12.04285345612698
 20
26.95443654963138
 30
0.0
 11
7.237869401126289
 21
26.95443654963138
 31
0.0
  0
LINE
  5
B1EE
330
17
100
AcDbEntity
  8
R-ANNO-DIMS
100
AcDbLine
 10
12.04285345612698
 20
26.95443654963138
 30
0.0
 11
8.470253754809704
 21
26.95443654963138
 31
0.0
  0
LINE
  5
B1EF
330
17
100
AcDbEntity
  8
R-ANNO-DIMS
100
AcDbLine
 10
12.04285345612698
 20
27.45443654963138
 30
0.0
 11
7.237869401126289
 21
27.45443654963138
 31
0.0
  0
LINE
  5
B1F0
330
17
100
AcDbEntity
  8
R-ANNO-DIMS
100
AcDbLine
 10
12.04285345612698
 20
26.95443654963138
 30
0.0
 11
7.862869401126289
 21
26.95443654963138
 31
0.0
  0
TEXT
  5
B1F1
330
17
100
AcDbEntity
  8
R-ANNO-TEXT
100
AcDbText
 10
16.85755026243748
 20
18.59668676980942
 30
0.0
 40
0.25
  1
128112 #12 X 1-1/2" P.H.S.T.
100
AcDbText
  0
LINE
  5
B1F2
330
17
100
AcDbEntity
  8
HIDDEN
100
AcDbLine
 10
11.78744940112631
 20
25.95443654963138
 30
0.0
 11
11.2624494011263
 21
25.95443654963138
 31
0.0
  0
LINE
  5
B1F3
330
17
100
AcDbEntity
  8
R-ANNO-DIMS
100
AcDbLine
 10
11.04286940112629
 20
31.07943654963138
 30
0.0
 11
11.04286940112629
 21
32.13443654963138
 31
0.0
  0
MTEXT
  5
B1F4
330
17
100
AcDbEntity
  8
R-ANNO-DIMS
100
AcDbMText
 10
7.817869401126301
 20
29.01276988296471
 30
0.0
 40
0.25
 41
0.0
 46
0.0
 71
     5
 72
     1
  1
\A1;1/2" MAX
 11
0.0000000000000001
 21
1.0
 31
0.0
 73
     1
 44
1.0
  0
LINE
  5
B1F5
330
17
100
AcDbEntity
  8
R-ANNO-DIMS
100
AcDbLine
 10
7.667869401126296
 20
27.45443654963138
 30
0.0
 11
8.222869401126303
 21
27.45443654963138
 31
0.0
  0
LINE
  5
B1F6
330
17
100
AcDbEntity
  8
R-ANNO-DIMS
100
AcDbLine
 10
7.667869401126296
 20
26.95443654963138
 30
0.0
 11
8.222869401126303
 21
26.95443654963138
 31
0.0
  0
LINE
  5
B1F7
330
17
100
AcDbEntity
  8
R-ANNO-DIMS
100
AcDbLine
 10
7.417869401126296
 20
27.70443654963138
 30
0.0
 11
7.417869401126296
 21
30.45443454963138
 31
0.0
  0
SOLID
  5
B1F8
330
17
100
AcDbEntity
  8
R-ANNO-DIMS
100
AcDbTrace
 10
7.376202734459639
 20
26.70443654963138
 30
0.0
 11
7.459536067792953
 21
26.70443654963138
 31
0.0
 12
7.417869401126296
 22
26.95443654963138
 32
0.0
 13
7.417869401126296
 23
26.95443654963138
 33
0.0
  0
SOLID
  5
B1F9
330
17
100
AcDbEntity
  8
R-ANNO-DIMS
100
AcDbTrace
 10
7.376202734459639
 20
27.70443654963138
 30
0.0
 11
7.459536067792953
 21
27.70443654963138
 31
0.0
 12
7.417869401126296
 22
27.45443654963138
 32
0.0
 13
7.417869401126296
 23
27.45443654963138
 33
0.0
  0
MTEXT
  5
B1FA
330
17
100
AcDbEntity
  8
R-ANNO-DIMS
100
AcDbMText
 10
7.192869401126301
 20
29.07943554963138
 30
0.0
 40
0.25
 41
0.0
 46
0.0
 71
     5
 72
     1
  1
\A1;M.L.
 11
0.0000000000000001
 21
1.0
 31
0.0
 73
     1
 44
1.0
  0
SOLID
  5
B1FB
330
17
100
AcDbEntity
  8
R-ANNO-DIMS
100
AcDbTrace
 10
7.376202734459639
 20
30.45443454963138
 30
0.0
 11
7.459536067792953
 21
30.45443454963138
 31
0.0
 12
7.417869401126296
 22
30.70443454963138
 32
0.0
 13
7.417869401126296
 23
30.70443454963138
 33
0.0
  0
LINE
  5
B1FC
330
17
100
AcDbEntity
  8
R-ANNO-DIMS
100
AcDbLine
 10
8.042869401126296
 20
27.70443654963138
 30
0.0
 11
8.042869401126296
 21
30.07110321629804
 31
0.0
  0
LINE
  5
B1FD
330
17
100
AcDbEntity
  8
R-ANNO-DIMS
100
AcDbLine
 10
10.8874494011263
 20
25.95443654963138
 30
0.0
 11
9.112869401126289
 21
25.95443654963138
 31
0.0
  0
SOLID
  5
B1FE
330
17
100
AcDbEntity
  8
R-ANNO-DIMS
100
AcDbTrace
 10
8.001202734459639
 20
26.70443654963138
 30
0.0
 11
8.084536067792953
 21
26.70443654963138
 31
0.0
 12
8.042869401126296
 22
26.95443654963138
 32
0.0
 13
8.042869401126296
 23
26.95443654963138
 33
0.0
  0
SOLID
  5
B1FF
330
17
100
AcDbEntity
  8
R-ANNO-DIMS
100
AcDbTrace
 10
8.001202734459639
 20
26.70443654963138
 30
0.0
 11
8.084536067792953
 21
26.70443654963138
 31
0.0
 12
8.042869401126296
 22
26.95443654963138
 32
0.0
 13
8.042869401126296
 23
26.95443654963138
 33
0.0
  0
LINE
  5
B200
330
17
100
AcDbEntity
  8
R-ANNO-DIMS
100
AcDbLine
 10
8.042869401126296
 20
26.70443654963138
 30
0.0
 11
8.042869401126296
 21
26.45443654963138
 31
0.0
  0
SOLID
  5
B201
330
17
100
AcDbEntity
  8
R-ANNO-DIMS
100
AcDbTrace
 10
8.608587088143025
 20
26.70443654963138
 30
0.0
 11
8.691920421476368
 21
26.70443654963138
 31
0.0
 12
8.650253754809682
 22
26.95443654963138
 32
0.0
 13
8.650253754809682
 23
26.95443654963138
 33
0.0
  0
LINE
  5
B202
330
17
100
AcDbEntity
  8
R-ANNO-DIMS
100
AcDbLine
 10
9.292869401126296
 20
26.20443654963138
 30
0.0
 11
9.292869401126296
 21
26.45443654963138
 31
0.0
  0
SOLID
  5
B203
330
17
100
AcDbEntity
  8
R-ANNO-DIMS
100
AcDbTrace
 10
9.251202734459639
 20
26.20443654963138
 30
0.0
 11
9.334536067792953
 21
26.20443654963138
 31
0.0
 12
9.292869401126296
 22
25.95443654963138
 32
0.0
 13
9.292869401126296
 23
25.95443654963138
 33
0.0
  0
SOLID
  5
B204
330
17
100
AcDbEntity
  8
R-ANNO-DIMS
100
AcDbTrace
 10
8.001202734459639
 20
27.70443654963138
 30
0.0
 11
8.084536067792953
 21
27.70443654963138
 31
0.0
 12
8.042869401126296
 22
27.45443654963138
 32
0.0
 13
8.042869401126296
 23
27.45443654963138
 33
0.0
  0
SOLID
  5
B205
330
17
100
AcDbEntity
  8
R-ANNO-DIMS
100
AcDbTrace
 10
11.29286940112629
 20
31.99610321629805
 30
0.0
 11
11.29286940112629
 21
31.91276988296471
 31
0.0
 12
11.04286940112629
 22
31.95443654963138
 32
0.0
 13
11.04286940112629
 23
31.95443654963138
 33
0.0
  0
LINE
  5
B206
330
17
100
AcDbEntity
  8
R-SWTS-DET2
  6
HIDDEN
100
AcDbLine
 10
13.75836940112632
 20
27.45443654963138
 30
0.0
 11
13.75836940112632
 21
30.30493654963139
 31
0.0
  0
ARC
  5
B207
330
17
100
AcDbEntity
  8
R-SWTS-DET1
100
AcDbCircle
 10
12.45434390956387
 20
27.20443654963139
 30
0.0
 40
0.875
100
AcDbArc
 50
343.39845040098
 51
16.60154959901999
  0
ARC
  5
B208
330
17
100
AcDbEntity
  8
R-SWTS-DET1
100
AcDbCircle
 10
10.95434390956387
 20
27.20443654963139
 30
0.0
 40
0.875
100
AcDbArc
 50
343.39845040098
 51
16.60154959901999
  0
ARC
  5
B209
330
17
100
AcDbEntity
  8
R-SWTS-DET1
100
AcDbCircle
 10
11.45434390956387
 20
27.20443654963139
 30
0.0
 40
0.875
100
AcDbArc
 50
343.39845040098
 51
16.60154959901999
  0
ARC
  5
B20A
330
17
100
AcDbEntity
  8
R-SWTS-DET1
100
AcDbCircle
 10
11.20434390956387
 20
27.20443654963139
 30
0.0
 40
0.875
100
AcDbArc
 50
343.39845040098
 51
16.60154959901999
  0
ARC
  5
B20B
330
17
100
AcDbEntity
  8
R-SWTS-DET1
100
AcDbCircle
 10
11.70434390956387
 20
27.20443654963139
 30
0.0
 40
0.875
100
AcDbArc
 50
343.39845040098
 51
16.60154959901999
  0
ARC
  5
B20C
330
17
100
AcDbEntity
  8
R-SWTS-DET1
100
AcDbCircle
 10
11.95434390956387
 20
27.20443654963139
 30
0.0
 40
0.875
100
AcDbArc
 50
343.39845040098
 51
16.60154959901999
  0
ARC
  5
B20D
330
17
100
AcDbEntity
  8
R-SWTS-DET1
100
AcDbCircle
 10
12.20434390956387
 20
27.20443654963139
 30
0.0
 40
0.875
100
AcDbArc
 50
343.39845040098
 51
16.60154959901999
  0
ARC
  5
B20E
330
17
100
AcDbEntity
  8
R-SWTS-DET3
100
AcDbCircle
 10
10.92392390956391
 20
25.70443654963139
 30
0.0
 40
0.875
100
AcDbArc
 50
6.752981689346946
 51
16.60154959901999
  0
LINE
  5
B20F
330
17
100
AcDbEntity
  8
R-SWTS-DET2
100
AcDbLine
 10
13.75836940112632
 20
27.45443654963138
 30
0.0
 11
13.75836940112632
 21
26.95443654963138
 31
0.0
  0
ARC
  5
B210
330
17
100
AcDbEntity
  8
R-SWTS-DET1
100
AcDbCircle
 10
12.71434390956384
 20
27.20443654963139
 30
0.0
 40
0.875
100
AcDbArc
 50
343.39845040098
 51
16.60154959901999
  0
MTEXT
  5
B211
330
17
100
AcDbEntity
  8
R-ANNO-DIMS
100
AcDbMText
 10
16.29286940112629
 20
32.17943654963138
 30
0.0
 40
0.25
 41
0.0
 46
0.0
 71
     5
 72
     1
  1
\A1;10 1/2"
 73
     1
 44
1.0
  0
MTEXT
  5
B212
330
17
100
AcDbEntity
  8
R-ANNO-DIMS
100
AcDbMText
 10
23.28711242715284
 20
25.32943654963138
 30
0.0
 40
0.25
 41
0.0
 46
0.0
 71
     5
 72
     1
  1
\A1;3 1/4"
 11
0.0000000000000001
 21
1.0
 31
0.0
 73
     1
 44
1.0
  0
LINE
  5
B213
330
17
100
AcDbEntity
  8
R-ANNO-DIMS
100
AcDbLine
 10
23.51211242715286
 20
23.95443654963138
 30
0.0
 11
23.51211242715286
 21
26.70443654963138
 31
0.0
  0
MTEXT
  5
B214
330
17
100
AcDbEntity
  8
R-ANNO-DIMS
100
AcDbMText
 10
22.4682952769987
 20
25.89193654963138
 30
0.0
 40
0.25
 41
0.0
 46
0.0
 71
     5
 72
     1
  1
\A1;2 1/8"
 11
0.0000000000000001
 21
1.0
 31
0.0
 73
     1
 44
1.0
  0
LINE
  5
B215
330
17
100
AcDbEntity
  8
R-ANNO-DIMS
100
AcDbLine
 10
22.6932952769987
 20
25.07943654963138
 30
0.0
 11
22.6932952769987
 21
26.70443654963138
 31
0.0
  0
LINE
  5
B216
330
17
100
AcDbEntity
  8
R-SWTS-DET2
  6
HIDDEN
100
AcDbLine
 10
21.25836940112632
 20
23.80493654963137
 30
0.0
 11
21.25836940112632
 21
26.95443654963137
 31
0.0
  0
LINE
  5
B217
330
17
100
AcDbEntity
  8
R-SWTS-DET2
  6
HIDDEN
100
AcDbLine
 10
21.13336940112632
 20
23.80493654963137
 30
0.0
 11
21.13336940112632
 21
26.95443654963137
 31
0.0
  0
LINE
  5
B218
330
17
100
AcDbEntity
  8
R-SWTS-DET1
100
AcDbLine
 10
21.54286940112627
 20
19.45443654963138
 30
0.0
 11
21.54286940112627
 21
26.95443654963138
 31
0.0
  0
CIRCLE
  5
B219
330
17
100
AcDbEntity
  8
R-SWTS-DET2
100
AcDbCircle
 10
19.16786940112629
 20
23.70443654963138
 30
0.0
 40
0.0865
  0
CIRCLE
  5
B21A
330
17
100
AcDbEntity
  8
R-SWTS-DET2
100
AcDbCircle
 10
19.16786940112629
 20
24.82943654963138
 30
0.0
 40
0.0865
  0
SOLID
  5
B21B
330
17
100
AcDbEntity
  8
R-ANNO-DIMS
100
AcDbTrace
 10
23.47044576048617
 20
23.95443654963138
 30
0.0
 11
23.55377909381951
 21
23.95443654963138
 31
0.0
 12
23.51211242715286
 22
23.70443654963138
 32
0.0
 13
23.51211242715286
 23
23.70443654963138
 33
0.0
  0
SOLID
  5
B21C
330
17
100
AcDbEntity
  8
R-ANNO-DIMS
100
AcDbTrace
 10
22.65162861033204
 20
25.07943654963138
 30
0.0
 11
22.73496194366538
 21
25.07943654963138
 31
0.0
 12
22.6932952769987
 22
24.82943654963138
 32
0.0
 13
22.6932952769987
 23
24.82943654963138
 33
0.0
  0
LINE
  5
B21D
330
17
100
AcDbEntity
  8
R-ANNO-DIMS
100
AcDbLine
 10
21.5428694011263
 20
31.07943654963138
 30
0.0
 11
21.5428694011263
 21
32.13443654963138
 31
0.0
  0
LINE
  5
B21E
330
17
100
AcDbEntity
  8
R-ANNO-DIMS
100
AcDbLine
 10
21.91786940112629
 20
26.95443654963138
 30
0.0
 11
23.69211242715284
 21
26.95443654963138
 31
0.0
  0
LINE
  5
B21F
330
17
100
AcDbEntity
  8
R-ANNO-DIMS
100
AcDbLine
 10
21.91786940112629
 20
26.95443654963138
 30
0.0
 11
22.87329527699871
 21
26.95443654963138
 31
0.0
  0
LINE
  5
B220
330
17
100
AcDbEntity
  8
R-SWTS-DET2
  6
HIDDEN
100
AcDbLine
 10
21.25836940112632
 20
27.45443654963138
 30
0.0
 11
21.25836940112632
 21
30.30493654963137
 31
0.0
  0
LINE
  5
B221
330
17
100
AcDbEntity
  8
R-SWTS-DET2
  6
HIDDEN
100
AcDbLine
 10
21.13336940112632
 20
27.45443654963138
 30
0.0
 11
21.13336940112632
 21
30.30493654963136
 31
0.0
  0
LINE
  5
B222
330
17
100
AcDbEntity
  8
R-SWTS-DET1
100
AcDbLine
 10
21.54286940112627
 20
27.45443654963138
 30
0.0
 11
21.54286940112627
 21
30.70443654963138
 31
0.0
  0
LINE
  5
B223
330
17
100
AcDbEntity
  8
R-SWTS-DET2
100
AcDbLine
 10
21.13336940112632
 20
26.95443654963137
 30
0.0
 11
21.13336940112632
 21
27.45443654963138
 31
0.0
  0
LINE
  5
B224
330
17
100
AcDbEntity
  8
R-SWTS-DET2
100
AcDbLine
 10
21.25836940112632
 20
26.95443654963137
 30
0.0
 11
21.25836940112632
 21
27.45443654963138
 31
0.0
  0
SOLID
  5
B225
330
17
100
AcDbEntity
  8
R-ANNO-DIMS
100
AcDbTrace
 10
22.65162861033204
 20
26.70443654963138
 30
0.0
 11
22.73496194366538
 21
26.70443654963138
 31
0.0
 12
22.6932952769987
 22
26.95443654963138
 32
0.0
 13
22.6932952769987
 23
26.95443654963138
 33
0.0
  0
SOLID
  5
B226
330
17
100
AcDbEntity
  8
R-ANNO-DIMS
100
AcDbTrace
 10
23.47044576048617
 20
26.70443654963138
 30
0.0
 11
23.55377909381951
 21
26.70443654963138
 31
0.0
 12
23.51211242715286
 22
26.95443654963138
 32
0.0
 13
23.51211242715286
 23
26.95443654963138
 33
0.0
  0
SOLID
  5
B227
330
17
100
AcDbEntity
  8
R-ANNO-DIMS
100
AcDbTrace
 10
21.29286940112629
 20
31.99610321629805
 30
0.0
 11
21.29286940112629
 21
31.91276988296471
 31
0.0
 12
21.5428694011263
 22
31.95443654963138
 32
0.0
 13
21.5428694011263
 23
31.95443654963138
 33
0.0
  0
LINE
  5
B228
330
17
100
AcDbEntity
  8
R-ANNO-DIMS
100
AcDbLine
 10
37.11435483109799
 20
33.71234394195528
 30
0.0
 11
38.66935483109796
 21
33.71234394195528
 31
0.0
  0
LINE
  5
B229
330
17
100
AcDbEntity
  8
R-ANNO-DIMS
100
AcDbLine
 10
37.11435483109795
 20
23.21234394195533
 30
0.0
 11
38.66935483109796
 21
23.21234394195533
 31
0.0
  0
LWPOLYLINE
  5
B22A
330
17
100
AcDbEntity
  8
R-SWTS-DET1
100
AcDbPolyline
 90
       22
 70
     1
 43
0.0
 10
33.38935483109725
 20
25.51834394195533
 10
33.38935483109725
 20
25.19234394195531
 42
1.0
 10
33.58935483109727
 20
25.19234394195531
 10
33.58935483109727
 20
25.51834394195533
 42
-0.4142135623730951
 10
33.68935483109726
 20
25.61834394195532
 10
33.89735483109729
 20
25.61834394195532
 42
0.4142135623730951
 10
33.92735483109726
 20
25.64834394195532
 10
33.92735483109726
 20
25.73834394195531
 42
-0.4142135623730951
 10
33.95735483109729
 20
25.76834394195531
 10
34.55335483109727
 20
25.76834394195531
 42
0.4142135623730994
 10
34.58335483109727
 20
25.79834394195531
 10
34.58335483109727
 20
33.43234394195531
 42
0.4142135623731039
 10
34.55335483109727
 20
33.46234394195532
 10
32.42535483109725
 20
33.46234394195533
 42
0.4142135623731038
 10
32.39535483109728
 20
33.43234394195533
 10
32.39535483109728
 20
25.79834394195531
 42
0.4142135623730951
 10
32.42535483109725
 20
25.76834394195531
 10
33.02135483109726
 20
25.76834394195531
 42
-0.4142135623730994
 10
33.05135483109729
 20
25.73834394195531
 10
33.05135483109729
 20
25.64834394195532
 42
0.4142135623730951
 10
33.08135483109726
 20
25.61834394195532
 10
33.28935483109729
 20
25.61834394195532
 42
-0.4142135623730951
  0
LWPOLYLINE
  5
B22B
330
17
100
AcDbEntity
  8
R-SWTS-DET1
100
AcDbPolyline
 90
       64
 70
     1
 43
0.0
 10
33.23635483109726
 20
25.45234394195532
 10
33.23635483109726
 20
25.39634394195531
 42
-0.4142135623730951
 10
33.22635483109724
 20
25.38634394195531
 10
33.18635483109728
 20
25.38634394195531
 42
0.4142135623730951
 10
33.17635483109729
 20
25.37634394195531
 10
33.17635483109729
 20
24.21234394195529
 10
33.21635483109725
 20
24.21234394195532
 10
33.23135483109727
 20
24.19734394195533
 10
33.24635483103765
 20
24.21234394195532
 10
33.31935483103786
 20
24.21234394195532
 10
33.33435483109736
 20
24.19734394195542
 10
33.34935483109726
 20
24.21234394195532
 10
33.38935483109725
 20
24.21234394195533
 10
33.38935483109725
 20
24.64234394195529
 10
33.44779781322507
 20
24.86045612060204
 42
-0.7673269879789282
 10
33.53091184896948
 20
24.86045612060204
 10
33.58935483109727
 20
24.64234394195529
 10
33.58935483109727
 20
24.21234394195533
 10
33.62935483109726
 20
24.21234394195532
 10
33.64435483109719
 20
24.19734394195542
 10
33.65935483115669
 20
24.21234394195532
 10
33.7323548311569
 20
24.21234394195532
 10
33.74735483109728
 20
24.19734394195533
 10
33.76235483109727
 20
24.21234394195532
 10
33.80235483109729
 20
24.21234394195529
 10
33.80235483109726
 20
25.37634394195531
 42
0.4142135623730951
 10
33.79235483109727
 20
25.38634394195531
 10
33.75235483109728
 20
25.38634394195531
 42
-0.4142135623730951
 10
33.74235483109726
 20
25.39634394195531
 10
33.74235483109729
 20
25.45234394195533
 42
-0.4142135623730951
 10
33.75235483109728
 20
25.46234394195533
 10
34.09935483109729
 20
25.46234394195532
 10
34.11435483109727
 20
25.47734394195532
 10
34.12935483109726
 20
25.46234394195532
 10
34.48135483109727
 20
25.46234394195531
 42
0.6693764950687069
 10
34.4919262596687
 20
25.48798560056473
 42
-0.1997729274168804
 10
34.46535483109727
 20
25.55183555222118
 10
34.46535483109727
 20
25.56234394195531
 42
-0.4142135623730717
 10
34.51535483109728
 20
25.61234394195531
 10
34.60335483109725
 20
25.61234394195532
 42
-0.4142135623730951
 10
34.65335483109726
 20
25.56234394195531
 10
34.65335483109726
 20
25.55183555222118
 42
-0.1997729274168747
 10
34.62678340252583
 20
25.48798560056473
 42
0.6693764950687263
 10
34.63735483109727
 20
25.46234394195531
 10
34.71935483109727
 20
25.46234394195531
 42
0.4142135623730951
 10
34.73935483109727
 20
25.48234394195532
 10
34.73935483109727
 20
33.71234394195531
 10
32.23935483109727
 20
33.71234394195534
 10
32.23935483109727
 20
25.48234394195532
 42
0.4142135623730951
 10
32.25935483109726
 20
25.46234394195531
 10
32.34135483109725
 20
25.46234394195531
 42
0.6693764950687414
 10
32.35192625966869
 20
25.48798560056474
 42
-0.1997729274168794
 10
32.32535483109729
 20
25.55183555222118
 10
32.32535483109729
 20
25.56234394195531
 42
-0.4142135623730847
 10
32.37535483109727
 20
25.61234394195532
 10
32.46335483109727
 20
25.61234394195531
 42
-0.4142135623730847
 10
32.51335483109727
 20
25.56234394195531
 10
32.51335483109727
 20
25.55183555222118
 42
-0.1997729274168768
 10
32.48678340252585
 20
25.48798560056472
 42
0.6693764950687222
 10
32.49735483109726
 20
25.46234394195531
 10
32.84935483109729
 20
25.46234394195532
 10
32.86435483109727
 20
25.47734394195532
 10
32.87935483109726
 20
25.46234394195532
 10
33.22635483109724
 20
25.46234394195533
 42
-0.4142135623730951
  0
LWPOLYLINE
  5
B22C
330
17
100
AcDbEntity
  8
R-SWTS-DET2
100
AcDbPolyline
 90
        9
 70
     0
 43
0.0
 10
35.21861642333298
 20
26.62484394195531
 42
0.1266889011641713
 10
35.2653112696068
 20
26.68681459580318
 42
0.0558856962682024
 10
35.28380679937905
 20
26.7506425987693
 42
0.0426236080121984
 10
35.29121129979996
 20
26.83734394195531
 42
0.0426236080121983
 10
35.28380679937905
 20
26.92404528514134
 42
0.0558856962682022
 10
35.2653112696068
 20
26.98787328810745
 42
0.0985958869438301
 10
35.23149045105578
 20
27.03835741189265
 42
0.1985442246528007
 10
35.20278306544862
 20
27.05022458481882
 42
0.0342500047400331
 10
35.19723275460348
 20
27.04984394195532
 42
0.0985958869438299
  0
LINE
  5
B22D
330
17
100
AcDbEntity
  8
R-SWTS-DET2
100
AcDbLine
 10
35.13935483109728
 20
27.04984394195532
 30
0.0
 11
35.13935483109728
 21
26.62484394195531
 31
0.0
  0
LINE
  5
B22E
330
17
100
AcDbEntity
  8
R-SWTS-DET2
100
AcDbLine
 10
32.98935483109727
 20
33.30284394195532
 30
0.0
 11
32.98935483109727
 21
25.92784394195532
 31
0.0
  0
LINE
  5
B22F
330
17
100
AcDbEntity
  8
R-SWTS-DET2
100
AcDbLine
 10
33.33935483109727
 20
33.30284394195532
 30
0.0
 11
33.33935483109727
 21
25.92784394195532
 31
0.0
  0
LINE
  5
B230
330
17
100
AcDbEntity
  8
R-SWTS-DET2
100
AcDbLine
 10
33.44435483109726
 20
33.30284394195532
 30
0.0
 11
33.44435483109726
 21
25.92784394195532
 31
0.0
  0
LINE
  5
B231
330
17
100
AcDbEntity
  8
R-SWTS-DET2
100
AcDbLine
 10
33.53435483109729
 20
33.30284394195532
 30
0.0
 11
33.53435483109729
 21
25.92784394195532
 31
0.0
  0
LINE
  5
B232
330
17
100
AcDbEntity
  8
R-SWTS-DET2
100
AcDbLine
 10
33.63935483109728
 20
33.30284394195532
 30
0.0
 11
33.63935483109728
 21
25.92784394195532
 31
0.0
  0
LINE
  5
B233
330
17
100
AcDbEntity
  8
R-SWTS-DET2
100
AcDbLine
 10
33.98935483109728
 20
33.30284394195532
 30
0.0
 11
33.98935483109728
 21
25.92784394195532
 31
0.0
  0
LWPOLYLINE
  5
B234
330
17
100
AcDbEntity
  8
R-SWTS-DET2
100
AcDbPolyline
 90
       10
 70
     1
 43
0.0
 10
32.86435483109727
 20
25.36234394195532
 10
31.86435483109728
 20
25.36234394195532
 10
31.86435483109728
 20
24.31234394195533
 10
32.86435483109727
 20
24.31234394195533
 10
32.86435483109727
 20
24.21234394195533
 10
31.73935483109727
 20
24.21234394195533
 10
31.73935483109727
 20
28.21234394195533
 10
31.86435483109728
 20
28.21234394195533
 10
31.86435483109728
 20
25.46234394195533
 10
32.86435483109727
 20
25.46234394195533
  0
LINE
  5
B235
330
17
100
AcDbEntity
  8
R-SWTS-DET3
100
AcDbLine
 10
31.73935483109727
 20
22.96234394195533
 30
0.0
 11
31.73935483109727
 21
33.9623439419553
 31
0.0
  0
LWPOLYLINE
  5
B236
330
17
100
AcDbEntity
  8
R-SWTS-DET1
100
AcDbPolyline
 90
        6
 70
     0
 43
0.0
 10
36.73935483109727
 20
22.96234394195533
 10
36.73935483109727
 20
28.36859394195533
 10
36.52710264097439
 20
28.42151435661775
 10
36.95192721880983
 20
28.52743502016816
 10
36.73967502868695
 20
28.58035543483058
 10
36.73967502868695
 20
33.98660543483058
  0
SOLID
  5
B237
330
17
100
AcDbEntity
  8
R-ANNO-DIMS
100
AcDbTrace
 10
32.48935483109728
 20
21.50401060862199
 30
0.0
 11
32.48935483109728
 21
21.42067727528866
 31
0.0
 12
32.23935483109727
 22
21.46234394195532
 32
0.0
 13
32.23935483109727
 23
21.46234394195532
 33
0.0
  0
SOLID
  5
B238
330
17
100
AcDbEntity
  8
R-ANNO-DIMS
100
AcDbTrace
 10
32.48935483109728
 20
20.87901060862199
 30
0.0
 11
32.48935483109728
 21
20.79567727528866
 31
0.0
 12
32.23935483109727
 22
20.83734394195532
 32
0.0
 13
32.23935483109727
 23
20.83734394195532
 33
0.0
  0
LINE
  5
B239
330
17
100
AcDbEntity
  8
R-ANNO-DIMS
100
AcDbLine
 10
31.98935483109727
 20
20.21234394195532
 30
0.0
 11
36.48935483109728
 21
20.21234394195532
 31
0.0
  0
SOLID
  5
B23A
330
17
100
AcDbEntity
  8
R-ANNO-DIMS
100
AcDbTrace
 10
32.48935483109728
 20
20.87901060862199
 30
0.0
 11
32.48935483109728
 21
20.79567727528866
 31
0.0
 12
32.23935483109727
 22
20.83734394195532
 32
0.0
 13
32.23935483109727
 23
20.83734394195532
 33
0.0
  0
LWPOLYLINE
  5
B23B
330
17
100
AcDbEntity
  8
R-SWTS-DET1
100
AcDbPolyline
 90
       59
 70
     1
 43
0.0
 10
34.42535483109728
 20
23.72634394195533
 10
34.53935483109723
 20
23.72634394195533
 10
34.53935483109723
 20
23.59151927276318
 10
34.47863182554324
 20
23.48634394195533
 42
1.000000000000009
 10
34.54791385784597
 20
23.44634394195534
 10
34.65335483109726
 20
23.62897306482604
 42
-0.849090458656993
 10
34.66935483109725
 20
23.72634394195532
 10
34.70935483109727
 20
23.72634394195532
 42
0.4142135623731122
 10
34.73935483109727
 20
23.75634394195532
 10
34.73935483109727
 20
23.94234394195533
 42
0.4142135623730951
 10
34.71935483109729
 20
23.96234394195532
 10
34.63735483109727
 20
23.96234394195532
 42
0.6693764950686889
 10
34.62678340252583
 20
23.93670228334591
 42
-0.1997729274168814
 10
34.65335483109726
 20
23.87285233168946
 10
34.65335483109726
 20
23.86234394195533
 42
-0.4142135623731054
 10
34.60335483109728
 20
23.81234394195533
 10
34.51535483109728
 20
23.81234394195534
 42
-0.4142135623730951
 10
34.46535483109727
 20
23.86234394195533
 10
34.46535483109727
 20
23.87285233168946
 42
-0.1997729274168702
 10
34.4919262596687
 20
23.93670228334592
 42
0.6693764950687497
 10
34.48135483109727
 20
23.96234394195532
 10
33.71435483109727
 20
23.96234394195532
 10
33.69935483109725
 20
23.97734394195532
 10
33.68435483109727
 20
23.96234394195532
 10
33.29435483109728
 20
23.96234394195532
 10
33.27935483109726
 20
23.97734394195532
 10
33.26435483109728
 20
23.96234394195532
 10
32.49735483109726
 20
23.96234394195532
 42
0.6693764950687072
 10
32.48678340252585
 20
23.93670228334592
 42
-0.1997729274168761
 10
32.51335483109727
 20
23.87285233168946
 10
32.51335483109727
 20
23.86234394195533
 42
-0.4142135623730951
 10
32.46335483109727
 20
23.81234394195534
 10
32.37535483109727
 20
23.81234394195533
 42
-0.4142135623731054
 10
32.32535483109729
 20
23.86234394195533
 10
32.32535483109729
 20
23.87285233168946
 42
-0.1997729274168748
 10
32.35192625966869
 20
23.93670228334591
 42
0.6693764950686886
 10
32.34135483109725
 20
23.96234394195532
 10
32.25935483109726
 20
23.96234394195532
 42
0.4142135623730951
 10
32.23935483109727
 20
23.94234394195533
 10
32.23935483109727
 20
23.75634394195532
 42
0.4142135623731039
 10
32.26935483109725
 20
23.72634394195533
 10
32.3093548310973
 20
23.72634394195533
 42
-0.8490904586570017
 10
32.32535483109729
 20
23.62897306482601
 10
32.43079580434858
 20
23.44634394195534
 42
1.000000000000009
 10
32.50007783665131
 20
23.48634394195533
 10
32.43935483109729
 20
23.59151927276318
 10
32.43935483109729
 20
23.72634394195533
 10
32.55335483109724
 20
23.72634394195533
 42
0.4142135623730516
 10
32.61335483109724
 20
23.78634394195532
 10
32.61335483109727
 20
23.86234394195533
 10
33.16435483109728
 20
23.86234394195533
 10
33.18935483109726
 20
23.83734394195533
 10
33.47435483109729
 20
23.83734394195533
 10
33.48935483109727
 20
23.85234394195533
 10
33.50435483109726
 20
23.83734394195533
 10
33.78935483109728
 20
23.83734394195533
 10
33.81435483109726
 20
23.86234394195533
 10
34.36535483109728
 20
23.86234394195533
 10
34.36535483109731
 20
23.78634394195532
 42
0.4142135623730518
  0
LWPOLYLINE
  5
B23C
330
17
100
AcDbEntity
  8
R-SWTS-DET1
100
AcDbPolyline
 90
       14
 70
     1
 43
0.0
 10
34.68935483109726
 20
23.27234394195533
 10
34.68935483109726
 20
23.63634394195532
 10
34.65935483109723
 20
23.63634394195532
 42
-1.0
 10
34.65935483109723
 20
23.71634394195532
 10
34.67935483109727
 20
23.71634394195532
 42
-0.4142135623730908
 10
34.73935483109727
 20
23.65634394195532
 10
34.73935483109727
 20
23.21234394195533
 10
32.23935483109727
 20
23.21234394195533
 10
32.23935483109727
 20
23.65634394195532
 42
-0.4142135623730907
 10
32.29935483109728
 20
23.71634394195532
 10
32.31935483109732
 20
23.71634394195532
 42
-1.0
 10
32.31935483109732
 20
23.63634394195532
 10
32.28935483109728
 20
23.63634394195532
 10
32.28935483109728
 20
23.27234394195533
  0
LINE
  5
B23D
330
17
100
AcDbEntity
  8
R-ANNO-DIMS
100
AcDbLine
 10
32.23935483109727
 20
22.83734394195533
 30
0.0
 11
32.23935483109727
 21
20.65734394195533
 31
0.0
  0
LINE
  5
B23E
330
17
100
AcDbEntity
  8
R-ANNO-DIMS
100
AcDbLine
 10
31.73935483109727
 20
22.58734394195532
 30
0.0
 11
31.73935483109727
 21
20.03234394195533
 31
0.0
  0
MTEXT
  5
B23F
330
17
100
AcDbEntity
  8
R-ANNO-DIMS
100
AcDbMText
 10
30.7226881644306
 20
21.06234394195533
 30
0.0
 40
0.25
 41
0.0
 46
0.0
 71
     5
 72
     1
  1
\A1;1/2"
 73
     1
 44
1.0
  0
LINE
  5
B240
330
17
100
AcDbEntity
  8
R-ANNO-DIMS
100
AcDbLine
 10
31.73935483109727
 20
22.58734394195532
 30
0.0
 11
31.73935483109727
 21
20.65734394195533
 31
0.0
  0
LINE
  5
B241
330
17
100
AcDbEntity
  8
R-ANNO-DIMS
100
AcDbLine
 10
32.23935483109727
 20
22.83734394195533
 30
0.0
 11
32.23935483109727
 21
20.65734394195533
 31
0.0
  0
LINE
  5
B242
330
17
100
AcDbEntity
  8
R-ANNO-DIMS
100
AcDbLine
 10
31.48935483109728
 20
20.83734394195532
 30
0.0
 11
30.20602149776394
 21
20.83734394195532
 31
0.0
  0
SOLID
  5
B243
330
17
100
AcDbEntity
  8
R-ANNO-DIMS
100
AcDbTrace
 10
31.48935483109728
 20
20.87901060862199
 30
0.0
 11
31.48935483109728
 21
20.79567727528866
 31
0.0
 12
31.73935483109727
 22
20.83734394195532
 32
0.0
 13
31.73935483109727
 23
20.83734394195532
 33
0.0
  0
SOLID
  5
B244
330
17
100
AcDbEntity
  8
R-ANNO-DIMS
100
AcDbTrace
 10
31.98935483109727
 20
20.25401060862199
 30
0.0
 11
31.98935483109727
 21
20.17067727528866
 31
0.0
 12
31.73935483109727
 22
20.21234394195532
 32
0.0
 13
31.73935483109727
 23
20.21234394195532
 33
0.0
  0
ARC
  5
B245
330
17
100
AcDbEntity
  8
R-SWTS-DET3
100
AcDbCircle
 10
31.98935483109693
 20
23.56884394195577
 30
0.0
 40
0.3125
100
AcDbArc
 50
36.86989764574247
 51
143.1301023542575
  0
LINE
  5
B246
330
17
100
AcDbEntity
  8
R-ANNO-DIMS
100
AcDbLine
 10
32.23935483109727
 20
22.83734394195533
 30
0.0
 11
32.23935483109727
 21
21.28234394195533
 31
0.0
  0
LINE
  5
B247
330
17
100
AcDbEntity
  8
R-SWTS-DET2
100
AcDbLine
 10
32.23974777833766
 20
24.21210723798849
 30
0.0
 11
32.23974777833766
 21
23.96210723798848
 31
0.0
  0
MTEXT
  5
B248
330
17
100
AcDbEntity
  8
R-ANNO-DIMS
100
AcDbMText
 10
34.48935483109727
 20
21.06234394195533
 30
0.0
 40
0.25
 41
0.0
 46
0.0
 71
     5
 72
     1
  1
\A1;F.W.
 73
     1
 44
1.0
  0
LINE
  5
B249
330
17
100
AcDbEntity
  8
R-ANNO-DIMS
100
AcDbLine
 10
32.48935483109728
 20
20.83734394195532
 30
0.0
 11
36.48935483109728
 21
20.83734394195532
 31
0.0
  0
LINE
  5
B24A
330
17
100
AcDbEntity
  8
R-ANNO-DIMS
100
AcDbLine
 10
32.48935483109728
 20
20.83734394195532
 30
0.0
 11
32.73935483109728
 21
20.83734394195532
 31
0.0
  0
MTEXT
  5
B24B
330
17
100
AcDbEntity
  8
R-ANNO-DIMS
100
AcDbMText
 10
34.23935483109727
 20
20.43734394195533
 30
0.0
 40
0.25
 41
0.0
 46
0.0
 71
     5
 72
     1
  1
\A1;O.D.
 73
     1
 44
1.0
  0
SOLID
  5
B24C
330
17
100
AcDbEntity
  8
R-ANNO-DIMS
100
AcDbTrace
 10
36.48935483109728
 20
20.87901060862199
 30
0.0
 11
36.48935483109728
 21
20.79567727528866
 31
0.0
 12
36.73935483109727
 22
20.83734394195532
 32
0.0
 13
36.73935483109727
 23
20.83734394195532
 33
0.0
  0
SOLID
  5
B24D
330
17
100
AcDbEntity
  8
R-ANNO-DIMS
100
AcDbTrace
 10
36.48935483109728
 20
20.25401060862199
 30
0.0
 11
36.48935483109728
 21
20.17067727528866
 31
0.0
 12
36.73935483109727
 22
20.21234394195532
 32
0.0
 13
36.73935483109727
 23
20.21234394195532
 33
0.0
  0
SOLID
  5
B24E
330
17
100
AcDbEntity
  8
R-ANNO-DIMS
100
AcDbTrace
 10
34.98935483109728
 20
21.50401060862199
 30
0.0
 11
34.98935483109728
 21
21.42067727528866
 31
0.0
 12
34.73935483109727
 22
21.46234394195532
 32
0.0
 13
34.73935483109727
 23
21.46234394195532
 33
0.0
  0
LINE
  5
B24F
330
17
100
AcDbEntity
  8
R-SWTS-DET2
100
AcDbLine
 10
34.79974045515837
 20
23.67258901993148
 30
0.0
 11
34.73974045515837
 21
23.67258901993146
 31
0.0
  0
LINE
  5
B250
330
17
100
AcDbEntity
  8
R-SWTS-DET2
100
AcDbLine
 10
34.79974045515837
 20
25.00209886397917
 30
0.0
 11
34.73974045515837
 21
25.00209886397918
 31
0.0
  0
LWPOLYLINE
  5
B251
330
17
100
AcDbEntity
  8
R-SWTS-DET3
100
AcDbPolyline
 90
        4
 70
     0
 43
0.0
 10
36.73935483109727
 20
24.46234394195533
 10
34.23935483109727
 20
24.46234394195533
 10
34.23935483109727
 20
24.21234394195533
 10
36.73935483109727
 20
24.21234394195533
  0
LINE
  5
B252
330
17
100
AcDbEntity
  8
R-SWTS-DET1
100
AcDbLine
 10
34.78237521924211
 20
23.67258901993147
 30
0.0
 11
36.73935483109727
 21
23.67258901993147
 31
0.0
  0
LINE
  5
B253
330
17
100
AcDbEntity
  8
R-SWTS-DET1
100
AcDbLine
 10
34.73935483109727
 20
25.46234394195533
 30
0.0
 11
36.73935483109727
 21
25.46234394195533
 31
0.0
  0
LINE
  5
B254
330
17
100
AcDbEntity
  8
R-SWTS-DET1
100
AcDbLine
 10
34.78237521924211
 20
25.00209886397918
 30
0.0
 11
36.73935483109727
 21
25.00209886397918
 31
0.0
  0
LINE
  5
B255
330
17
100
AcDbEntity
  8
R-SWTS-DET1
100
AcDbLine
 10
34.73935483109727
 20
25.27734394195532
 30
0.0
 11
36.73935483109727
 21
25.27734394195532
 31
0.0
  0
LINE
  5
B256
330
17
100
AcDbEntity
  8
R-SWTS-DET1
100
AcDbLine
 10
34.73935483109727
 20
25.33734394195532
 30
0.0
 11
36.73935483109727
 21
25.33734394195532
 31
0.0
  0
LINE
  5
B257
330
17
100
AcDbEntity
  8
R-SWTS-DET1
100
AcDbLine
 10
34.73935483109727
 20
23.21234394195533
 30
0.0
 11
36.73935483109727
 21
23.21234394195533
 31
0.0
  0
LINE
  5
B258
330
17
100
AcDbEntity
  8
R-SWTS-DET2
100
AcDbLine
 10
33.61473483109728
 20
23.83734394195535
 30
0.0
 11
33.61473483109728
 21
24.50234394195535
 31
0.0
  0
LINE
  5
B259
330
17
100
AcDbEntity
  8
R-SWTS-DET2
100
AcDbLine
 10
33.36396483109729
 20
23.83734394195535
 30
0.0
 11
33.36396483109729
 21
24.50234394195535
 31
0.0
  0
LINE
  5
B25A
330
17
100
AcDbEntity
  8
R-SWTS-DET2
100
AcDbLine
 10
33.48935483109727
 20
23.35283894195534
 30
0.0
 11
33.48935483109727
 21
25.0466493172171
 31
0.0
  0
LINE
  5
B25B
330
17
100
AcDbEntity
  8
R-SWTS-DET1
100
AcDbLine
 10
33.35635483109729
 20
23.96234394195532
 30
0.0
 11
33.35635483109729
 21
23.83734394195533
 31
0.0
  0
LINE
  5
B25C
330
17
100
AcDbEntity
  8
R-SWTS-DET1
100
AcDbLine
 10
33.62235483109726
 20
23.96234394195532
 30
0.0
 11
33.62235483109726
 21
23.83734394195533
 31
0.0
  0
MTEXT
  5
B25D
330
17
100
AcDbEntity
  8
R-ANNO-DIMS
100
AcDbMText
 10
33.48935483109727
 20
21.68734394195533
 30
0.0
 40
0.25
 41
0.0
 46
0.0
 71
     5
 72
     1
  1
\A1;2 1/2"
 73
     1
 44
1.0
  0
LINE
  5
B25E
330
17
100
AcDbEntity
  8
R-ANNO-DIMS
100
AcDbLine
 10
34.48935483109727
 20
21.46234394195532
 30
0.0
 11
32.48935483109728
 21
21.46234394195532
 31
0.0
  0
LWPOLYLINE
  5
B25F
330
17
100
AcDbEntity
  8
R-SWTS-DET2
100
AcDbPolyline
 90
       10
 70
     1
 43
0.0
 10
34.58285483109728
 20
23.27234394195533
 42
0.4142135623730951
 10
34.61385483109729
 20
23.30334394195533
 10
34.61385483109729
 20
23.49134394195532
 10
34.58285483109728
 20
23.49134394195533
 10
34.58285483109728
 20
23.30334394195533
 10
32.39585483109727
 20
23.30334394195533
 10
32.39585483109727
 20
23.49134394195533
 10
32.36485483109726
 20
23.49134394195532
 10
32.36485483109726
 20
23.30334394195533
 42
0.4142135623730951
 10
32.39585483109727
 20
23.27234394195533
  0
LINE
  5
B260
330
17
100
AcDbEntity
  8
R-SWTS-DET1
100
AcDbLine
 10
33.73935483109728
 20
23.83734394195535
 30
0.0
 11
33.23935483109727
 21
23.83734394195535
 31
0.0
  0
LINE
  5
B261
330
17
100
AcDbEntity
  8
R-SWTS-DET2
100
AcDbLine
 10
33.73935483109728
 20
23.79734394195535
 30
0.0
 11
33.23935483109727
 21
23.79734394195535
 31
0.0
  0
ARC
  5
B262
330
17
100
AcDbEntity
  8
R-SWTS-DET2
100
AcDbCircle
 10
33.48935483109727
 20
23.78758894195534
 30
0.0
 40
0.16484915
100
AcDbArc
 50
232.0122999999998
 51
307.9877000000001
  0
LINE
  5
B263
330
17
100
AcDbEntity
  8
R-SWTS-DET2
100
AcDbLine
 10
33.64153483109726
 20
23.62273894195535
 30
0.0
 11
33.33715983109727
 21
23.62273894195535
 31
0.0
  0
LINE
  5
B264
330
17
100
AcDbEntity
  8
R-SWTS-DET2
100
AcDbLine
 10
33.67594483109727
 20
23.65373894195535
 30
0.0
 11
33.30275483109728
 21
23.65373894195535
 31
0.0
  0
ARC
  5
B265
330
17
100
AcDbEntity
  8
R-SWTS-DET2
100
AcDbCircle
 10
33.33715983109727
 20
23.67704894195534
 30
0.0
 40
0.0543126
100
AcDbArc
 50
200.9107000000002
 51
339.0892999999997
  0
LINE
  5
B266
330
17
100
AcDbEntity
  8
R-SWTS-DET2
100
AcDbLine
 10
33.23935483109727
 20
23.79734394195535
 30
0.0
 11
33.23935483109727
 21
23.83734394195535
 31
0.0
  0
LINE
  5
B267
330
17
100
AcDbEntity
  8
R-SWTS-DET2
100
AcDbLine
 10
33.30275483109728
 20
23.63503394195534
 30
0.0
 11
33.30275483109728
 21
23.65373894195535
 31
0.0
  0
LINE
  5
B268
330
17
100
AcDbEntity
  8
R-SWTS-DET2
100
AcDbLine
 10
33.28643483109727
 20
23.65766394195534
 30
0.0
 11
33.28643483109727
 21
23.79734394195535
 31
0.0
  0
LINE
  5
B269
330
17
100
AcDbEntity
  8
R-SWTS-DET2
100
AcDbLine
 10
33.38788983109726
 20
23.65766394195534
 30
0.0
 11
33.38788983109726
 21
23.79734394195535
 31
0.0
  0
LINE
  5
B26A
330
17
100
AcDbEntity
  8
R-ANNO-DIMS
100
AcDbLine
 10
34.73935483109727
 20
22.83734394195533
 30
0.0
 11
34.73935483109727
 21
21.28234394195533
 31
0.0
  0
LINE
  5
B26B
330
17
100
AcDbEntity
  8
R-ANNO-DIMS
100
AcDbLine
 10
34.73935483109727
 20
22.83734394195533
 30
0.0
 11
34.73935483109727
 21
21.28234394195533
 31
0.0
  0
SOLID
  5
B26C
330
17
100
AcDbEntity
  8
R-ANNO-DIMS
100
AcDbTrace
 10
34.48935483109727
 20
21.50401060862199
 30
0.0
 11
34.48935483109727
 21
21.42067727528866
 31
0.0
 12
34.73935483109727
 22
21.46234394195532
 32
0.0
 13
34.73935483109727
 23
21.46234394195532
 33
0.0
  0
ARC
  5
B26D
330
17
100
AcDbEntity
  8
R-SWTS-DET2
100
AcDbCircle
 10
33.64153483109726
 20
23.67704894195534
 30
0.0
 40
0.0543126
100
AcDbArc
 50
200.9107000000002
 51
339.0892999999997
  0
LINE
  5
B26E
330
17
100
AcDbEntity
  8
R-SWTS-DET2
100
AcDbLine
 10
33.67594483109727
 20
23.63503394195534
 30
0.0
 11
33.67594483109727
 21
23.65373894195535
 31
0.0
  0
LINE
  5
B26F
330
17
100
AcDbEntity
  8
R-SWTS-DET2
100
AcDbLine
 10
33.59080983109726
 20
23.65766394195534
 30
0.0
 11
33.59080983109726
 21
23.79734394195535
 31
0.0
  0
LINE
  5
B270
330
17
100
AcDbEntity
  8
R-SWTS-DET2
100
AcDbLine
 10
33.73935483109728
 20
23.79734394195535
 30
0.0
 11
33.73935483109728
 21
23.83734394195535
 31
0.0
  0
LINE
  5
B271
330
17
100
AcDbEntity
  8
R-SWTS-DET2
100
AcDbLine
 10
33.69226483109728
 20
23.65766394195534
 30
0.0
 11
33.69226483109728
 21
23.79734394195535
 31
0.0
  0
LINE
  5
B272
330
17
100
AcDbEntity
  8
R-SWTS-DET2
100
AcDbLine
 10
34.73974045515837
 20
23.67258901993146
 30
0.0
 11
34.73974045515837
 21
23.78821987764482
 31
0.0
  0
LINE
  5
B273
330
17
100
AcDbEntity
  8
R-SWTS-DET2
100
AcDbLine
 10
33.48935483109727
 20
24.83734394195535
 30
0.0
 11
33.61473483109728
 21
24.50234394195535
 31
0.0
  0
LWPOLYLINE
  5
B274
330
17
100
AcDbEntity
  8
R-SWTS-DET2
  6
HIDDEN
100
AcDbPolyline
 90
        8
 70
     1
 43
0.0
 10
33.58435483109727
 20
25.91500462679441
 10
33.58435483109727
 20
26.37188743142246
 10
33.51707121707261
 20
26.53432444492627
 42
0.6681786379193211
 10
33.46163844512194
 20
26.53432444492627
 10
33.39435483109728
 20
26.37188743142244
 10
33.39435483109728
 20
25.91500462679441
 10
33.29685483109728
 20
25.80284394195532
 10
33.68185483109727
 20
25.80284394195532
  0
LINE
  5
B275
330
17
100
AcDbEntity
  8
R-SWTS-DET2
100
AcDbLine
 10
32.44235483109728
 20
25.92784394195532
 30
0.0
 11
34.53635483109727
 21
25.92784394195532
 31
0.0
  0
LWPOLYLINE
  5
B276
330
17
100
AcDbEntity
  8
R-SWTS-DET2
100
AcDbPolyline
 90
        4
 70
     0
 43
0.0
 10
34.53635483109727
 20
25.92784394195532
 10
34.53635483109727
 20
25.80284394195532
 10
32.44235483109728
 20
25.80284394195532
 10
32.44235483109728
 20
25.92784394195532
  0
LINE
  5
B277
330
17
100
AcDbEntity
  8
R-SWTS-DET2
100
AcDbLine
 10
32.59974777833765
 20
23.96210723798848
 30
0.0
 11
32.59974777833765
 21
24.21210723798848
 31
0.0
  0
LINE
  5
B278
330
17
100
AcDbEntity
  8
R-SWTS-DET2
100
AcDbLine
 10
33.36396483109729
 20
24.50234394195535
 30
0.0
 11
33.48935483109727
 21
24.83734394195535
 31
0.0
  0
LINE
  5
B279
330
17
100
AcDbEntity
  8
R-SWTS-DET2
100
AcDbLine
 10
33.23885483109729
 20
23.96234394195532
 30
0.0
 11
33.17635483109729
 21
23.96234394195532
 31
0.0
  0
LINE
  5
B27A
330
17
100
AcDbEntity
  8
R-SWTS-DET2
100
AcDbLine
 10
33.23885483109729
 20
24.21234394195533
 30
0.0
 11
33.17635483109729
 21
24.21234394195533
 31
0.0
  0
LINE
  5
B27B
330
17
100
AcDbEntity
  8
R-SWTS-DET2
100
AcDbLine
 10
33.17635483109729
 20
24.21234394195533
 30
0.0
 11
33.17635483109729
 21
23.96234394195532
 31
0.0
  0
LWPOLYLINE
  5
B27C
330
17
100
AcDbEntity
  8
R-SWTS-DET1
100
AcDbPolyline
 90
       52
 70
     1
 43
0.0
 10
34.73935483109727
 20
25.31734394195532
 42
0.4142135623730951
 10
34.71935483109729
 20
25.33734394195532
 10
34.60235483109727
 20
25.33734394195532
 10
34.60235483109727
 20
25.51234394195532
 10
34.62235483109726
 20
25.51234394195532
 42
0.6418694421004242
 10
34.63371306434863
 20
25.53714141802868
 10
34.59507129759996
 20
25.58193889410203
 42
0.6951432498197458
 10
34.54235483109727
 20
25.56234394195532
 10
34.54235483109727
 20
25.46234394195532
 10
34.44235483109725
 20
25.46234394195533
 42
0.4142135623730951
 10
34.42235483109727
 20
25.44234394195533
 10
34.42235483109727
 20
25.42234394195533
 42
0.4142135623730951
 10
34.44235483109725
 20
25.40234394195533
 10
34.54235483109727
 20
25.40234394195532
 10
34.54235483109727
 20
25.09008194498568
 42
0.2679491924311423
 10
34.57235483109727
 20
25.03812042075862
 10
34.67935483109727
 20
24.97634394195534
 10
34.67935483109727
 20
24.92234394195533
 10
34.51535483109728
 20
24.92234394195533
 42
0.4142135623730744
 10
34.40535483109727
 20
24.81234394195532
 10
34.40535483109727
 20
24.77234394195533
 10
34.05735483109726
 20
24.77234394195534
 10
34.05735483109726
 20
25.26934394195522
 42
0.1989123673796571
 10
34.03978123796847
 20
25.31177034882642
 10
33.91478123796841
 20
25.43677034882647
 42
0.1989123673796589
 10
33.8723548310972
 20
25.45434394195527
 10
33.76235483109721
 20
25.45434394195527
 42
0.4142135623730951
 10
33.7423548310972
 20
25.43434394195528
 10
33.7423548310972
 20
25.41434394195527
 42
0.4142135623730951
 10
33.76235483109721
 20
25.39434394195527
 10
33.8723548310972
 20
25.39434394195527
 10
33.99735483109726
 20
25.26934394195522
 10
33.99735483109726
 20
24.77234394195534
 42
0.414213562373088
 10
34.05735483109726
 20
24.71234394195533
 10
34.48135483109729
 20
24.71234394195533
 42
0.6693764950687673
 10
34.4919262596687
 20
24.73798560056474
 42
-0.1997729274168782
 10
34.46535483109727
 20
24.80183555222119
 10
34.46535483109727
 20
24.81234394195532
 42
-0.4142135623730744
 10
34.51535483109728
 20
24.86234394195533
 10
34.60335483109728
 20
24.86234394195533
 42
-0.4142135623730951
 10
34.65335483109726
 20
24.81234394195533
 10
34.65335483109726
 20
24.80183555222119
 42
-0.1997729274168749
 10
34.62678340252583
 20
24.73798560056474
 42
0.6693764950687617
 10
34.63735483109727
 20
24.71234394195533
 10
34.71935483109729
 20
24.71234394195533
 42
0.4142135623730429
 10
34.73935483109727
 20
24.73234394195532
 10
34.73935483109727
 20
24.97634394195534
 42
0.2679491924311414
 10
34.70935483109727
 20
25.0283054661824
 10
34.60235483109727
 20
25.09008194498568
 10
34.60235483109727
 20
25.27734394195532
 10
34.71935483109729
 20
25.27734394195532
 42
0.4142135623730951
 10
34.73935483109727
 20
25.29734394195532
  0
LINE
  5
B27D
330
17
100
AcDbEntity
  8
R-SWTS-DET2
100
AcDbLine
 10
33.80235483109726
 20
23.96234394195532
 30
0.0
 11
33.73985483109726
 21
23.96234394195532
 31
0.0
  0
LINE
  5
B27E
330
17
100
AcDbEntity
  8
R-SWTS-DET2
100
AcDbLine
 10
33.80235483109726
 20
23.96234394195532
 30
0.0
 11
33.80235483109726
 21
24.21234394195533
 31
0.0
  0
LINE
  5
B27F
330
17
100
AcDbEntity
  8
R-SWTS-DET1
100
AcDbLine
 10
33.80235483109726
 20
24.21234394195533
 30
0.0
 11
33.73985483109726
 21
24.21234394195533
 31
0.0
  0
LINE
  5
B280
330
17
100
AcDbEntity
  8
R-SWTS-DET2
100
AcDbLine
 10
34.25974045515835
 20
24.71209886397918
 30
0.0
 11
34.25974045515835
 21
24.46209886397918
 31
0.0
  0
LINE
  5
B281
330
17
100
AcDbEntity
  8
R-SWTS-DET2
100
AcDbLine
 10
34.25974045515835
 20
23.96258901993147
 30
0.0
 11
34.25974045515835
 21
24.21258901993147
 31
0.0
  0
LINE
  5
B282
330
17
100
AcDbEntity
  8
R-SWTS-DET2
100
AcDbLine
 10
34.73974045515837
 20
25.00209886397918
 30
0.0
 11
34.73974045515837
 21
24.88646800626584
 31
0.0
  0
LINE
  5
B283
330
17
100
AcDbEntity
  8
R-SWTS-DET2
100
AcDbLine
 10
34.8762758882292
 20
24.21258901993147
 30
0.0
 11
34.79974045515837
 21
23.67258901993148
 31
0.0
  0
MTEXT
  5
B284
330
17
100
AcDbEntity
  8
R-ANNO-DIMS
100
AcDbMText
 10
35.73935483109727
 20
21.68734394195533
 30
0.0
 40
0.25
 41
0.0
 46
0.0
 71
     5
 72
     1
  1
\A1;DLO
 73
     1
 44
1.0
  0
LINE
  5
B285
330
17
100
AcDbEntity
  8
R-ANNO-DIMS
100
AcDbLine
 10
34.98935483109728
 20
21.46234394195532
 30
0.0
 11
36.48935483109728
 21
21.46234394195532
 31
0.0
  0
SOLID
  5
B286
330
17
100
AcDbEntity
  8
R-ANNO-DIMS
100
AcDbTrace
 10
36.48935483109728
 20
21.50401060862199
 30
0.0
 11
36.48935483109728
 21
21.42067727528866
 31
0.0
 12
36.73935483109727
 22
21.46234394195532
 32
0.0
 13
36.73935483109727
 23
21.46234394195532
 33
0.0
  0
LINE
  5
B287
330
17
100
AcDbEntity
  8
R-SWTS-DET2
100
AcDbLine
 10
34.8762758882292
 20
24.46209886397918
 30
0.0
 11
34.79974045515837
 21
25.00209886397917
 31
0.0
  0
LINE
  5
B288
330
17
100
AcDbEntity
  8
R-SWTS-DET2
100
AcDbLine
 10
35.21861642333298
 20
26.62484394195531
 30
0.0
 11
35.13935483109728
 21
26.62484394195531
 31
0.0
  0
TEXT
  5
B289
330
17
100
AcDbEntity
  8
R-ANNO-TEXT
100
AcDbText
 10
32.16502397392233
 20
35.67318589395795
 30
0.0
 40
0.25
  1
128112 #12 X 1-1/2" P.H.S.T.
100
AcDbText
  0
TEXT
  5
B28A
330
17
100
AcDbEntity
  8
R-ANNO-TEXT
100
AcDbText
 10
32.16502397392233
 20
35.17318589395794
 30
0.0
 40
0.25
  1
162381 MULLION SLEEVE
100
AcDbText
  0
TEXT
  5
B28B
330
17
100
AcDbEntity
  8
R-ANNO-TEXT
100
AcDbText
 10
32.16502397392233
 20
34.67318589395794
 30
0.0
 40
0.25
  1
162313 COVER SLEEVE
100
AcDbText
  0
LINE
  5
B28C
330
17
100
AcDbEntity
  8
R-SWTS-DET2
  6
CENTER
100
AcDbLine
 10
32.70463264320881
 20
26.83734394195532
 30
0.0
 11
30.90264517064671
 21
26.83734394195532
 31
0.0
  0
LINE
  5
B28D
330
17
100
AcDbEntity
  8
R-SWTS-DET2
  6
CENTER
100
AcDbLine
 10
35.41535483109726
 20
26.83734394195531
 30
0.0
 11
33.51435483109728
 21
26.83734394195531
 31
0.0
  0
LINE
  5
B28E
330
17
100
AcDbEntity
  8
R-SWTS-DET2
100
AcDbLine
 10
35.13935483109728
 20
26.94534394195532
 30
0.0
 11
33.82685483109728
 21
26.94534394195532
 31
0.0
  0
LINE
  5
B28F
330
17
100
AcDbEntity
  8
R-SWTS-DET2
100
AcDbLine
 10
35.13935483109728
 20
26.72934394195531
 30
0.0
 11
33.82685483109728
 21
26.72934394195531
 31
0.0
  0
LINE
  5
B290
330
17
100
AcDbEntity
  8
R-SWTS-DET2
100
AcDbLine
 10
33.63935483109728
 20
26.83734394195531
 30
0.0
 11
33.82685483109728
 21
26.94534394195532
 31
0.0
  0
LINE
  5
B291
330
17
100
AcDbEntity
  8
R-SWTS-DET2
100
AcDbLine
 10
33.82685483109728
 20
26.72934394195531
 30
0.0
 11
33.63935483109728
 21
26.83734394195531
 31
0.0
  0
LINE
  5
B292
330
17
100
AcDbEntity
  8
R-SWTS-DET2
100
AcDbLine
 10
35.13935483109728
 20
27.04984394195532
 30
0.0
 11
35.20833337629375
 21
27.04984394195532
 31
0.0
  0
LINE
  5
B293
330
17
100
AcDbEntity
  8
R-SWTS-DET1
100
AcDbLine
 10
34.7393548310973
 20
33.71234394195531
 30
0.0
 11
36.73935483109733
 21
33.71234394195531
 31
0.0
  0
LWPOLYLINE
  5
B294
330
17
100
AcDbEntity
  8
R-SWTS-DET2
  6
HIDDEN
100
AcDbPolyline
 90
        8
 70
     1
 43
0.0
 10
33.58435483109727
 20
33.31568325711623
 10
33.58435483109727
 20
32.85880045248818
 10
33.51707121707261
 20
32.69636343898438
 42
-0.6681786379193211
 10
33.46163844512194
 20
32.69636343898438
 10
33.39435483109728
 20
32.8588004524882
 10
33.39435483109728
 20
33.31568325711623
 10
33.29685483109728
 20
33.42784394195533
 10
33.68185483109727
 20
33.42784394195533
  0
LINE
  5
B295
330
17
100
AcDbEntity
  8
R-SWTS-DET2
100
AcDbLine
 10
32.44235483109728
 20
33.30284394195532
 30
0.0
 11
34.53635483109727
 21
33.30284394195532
 31
0.0
  0
LWPOLYLINE
  5
B296
330
17
100
AcDbEntity
  8
R-SWTS-DET2
100
AcDbPolyline
 90
        4
 70
     0
 43
0.0
 10
32.44235483109728
 20
33.30284394195532
 10
32.44235483109728
 20
33.42784394195533
 10
34.53635483109727
 20
33.42784394195533
 10
34.53635483109727
 20
33.30284394195532
  0
LINE
  5
B297
330
17
100
AcDbEntity
  8
R-SWTS-DET1
100
AcDbLine
 10
34.7393548310973
 20
33.71234394195533
 30
0.0
 11
34.72035483109733
 21
33.71234394195533
 31
0.0
  0
LINE
  5
B298
330
17
100
AcDbEntity
  8
R-ANNO-DIMS
100
AcDbLine
 10
38.48935483109798
 20
23.46234394195533
 30
0.0
 11
38.48935483109798
 21
33.46234394195528
 31
0.0
  0
SOLID
  5
B299
330
17
100
AcDbEntity
  8
R-ANNO-DIMS
100
AcDbTrace
 10
38.44768816443133
 20
23.46234394195533
 30
0.0
 11
38.53102149776464
 21
23.46234394195533
 31
0.0
 12
38.48935483109798
 22
23.21234394195533
 32
0.0
 13
38.48935483109798
 23
23.21234394195533
 33
0.0
  0
MTEXT
  5
B29A
330
17
100
AcDbEntity
  8
R-ANNO-DIMS
100
AcDbMText
 10
38.26435483109799
 20
28.4623439419553
 30
0.0
 40
0.25
 41
0.0
 46
0.0
 71
     5
 72
     1
  1
\A1;10 1/2"
 11
0.0000000000000001
 21
1.0
 31
0.0
 73
     1
 44
1.0
  0
SOLID
  5
B29B
330
17
100
AcDbEntity
  8
R-ANNO-DIMS
100
AcDbTrace
 10
38.44768816443133
 20
33.46234394195528
 30
0.0
 11
38.53102149776464
 21
33.46234394195528
 31
0.0
 12
38.48935483109798
 22
33.71234394195528
 32
0.0
 13
38.48935483109798
 23
33.71234394195528
 33
0.0
  0
LINE
  5
B29C
330
17
100
AcDbEntity
  8
R-ANNO-DIMS
100
AcDbLine
 10
53.51729759848388
 20
33.71234394195528
 30
0.0
 11
55.07229759848389
 21
33.71234394195528
 31
0.0
  0
LINE
  5
B29D
330
17
100
AcDbEntity
  8
R-ANNO-DIMS
100
AcDbLine
 10
53.51729759848385
 20
23.21234394195533
 30
0.0
 11
55.07229759848389
 21
23.21234394195533
 31
0.0
  0
LWPOLYLINE
  5
B29E
330
17
100
AcDbEntity
  8
R-SWTS-DET1
100
AcDbPolyline
 90
       22
 70
     1
 43
0.0
 10
49.79229759848317
 20
25.51834394195533
 10
49.79229759848317
 20
25.19234394195531
 42
1.0
 10
49.99229759848316
 20
25.19234394195531
 10
49.99229759848316
 20
25.51834394195533
 42
-0.4142135623730951
 10
50.09229759848318
 20
25.61834394195532
 10
50.30029759848318
 20
25.61834394195532
 42
0.4142135623730951
 10
50.33029759848318
 20
25.64834394195532
 10
50.33029759848318
 20
25.73834394195531
 42
-0.4142135623730951
 10
50.36029759848318
 20
25.76834394195531
 10
50.95629759848319
 20
25.76834394195531
 42
0.4142135623730994
 10
50.98629759848319
 20
25.79834394195531
 10
50.98629759848319
 20
33.43234394195531
 42
0.4142135623731039
 10
50.95629759848319
 20
33.46234394195532
 10
48.82829759848317
 20
33.46234394195533
 42
0.4142135623731038
 10
48.79829759848317
 20
33.43234394195533
 10
48.79829759848317
 20
25.79834394195531
 42
0.4142135623730951
 10
48.82829759848317
 20
25.76834394195531
 10
49.42429759848318
 20
25.76834394195531
 42
-0.4142135623730994
 10
49.45429759848318
 20
25.73834394195531
 10
49.45429759848318
 20
25.64834394195532
 42
0.4142135623730951
 10
49.48429759848318
 20
25.61834394195532
 10
49.69229759848317
 20
25.61834394195532
 42
-0.4142135623730951
  0
LWPOLYLINE
  5
B29F
330
17
100
AcDbEntity
  8
R-SWTS-DET1
100
AcDbPolyline
 90
       64
 70
     1
 43
0.0
 10
49.63929759848316
 20
25.45234394195532
 10
49.63929759848316
 20
25.39634394195531
 42
-0.4142135623730951
 10
49.62929759848316
 20
25.38634394195531
 10
49.58929759848317
 20
25.38634394195531
 42
0.4142135623730951
 10
49.57929759848318
 20
25.37634394195531
 10
49.57929759848321
 20
24.21234394195529
 10
49.61929759848317
 20
24.21234394195532
 10
49.63429759848316
 20
24.19734394195533
 10
49.64929759842354
 20
24.21234394195532
 10
49.72229759842375
 20
24.21234394195532
 10
49.73729759848328
 20
24.19734394195542
 10
49.75229759848315
 20
24.21234394195532
 10
49.79229759848317
 20
24.21234394195533
 10
49.79229759848317
 20
24.64234394195529
 10
49.85074058061099
 20
24.86045612060204
 42
-0.7673269879789282
 10
49.9338546163554
 20
24.86045612060204
 10
49.99229759848316
 20
24.64234394195529
 10
49.99229759848319
 20
24.21234394195533
 10
50.03229759848318
 20
24.21234394195532
 10
50.04729759848311
 20
24.19734394195542
 10
50.06229759854261
 20
24.21234394195532
 10
50.13529759854282
 20
24.21234394195532
 10
50.15029759848317
 20
24.19734394195533
 10
50.16529759848319
 20
24.21234394195532
 10
50.20529759848319
 20
24.21234394195529
 10
50.20529759848319
 20
25.37634394195531
 42
0.4142135623730951
 10
50.19529759848319
 20
25.38634394195531
 10
50.15529759848317
 20
25.38634394195531
 42
-0.4142135623730951
 10
50.14529759848318
 20
25.39634394195531
 10
50.14529759848318
 20
25.45234394195533
 42
-0.4142135623730951
 10
50.15529759848317
 20
25.46234394195533
 10
50.50229759848318
 20
25.46234394195532
 10
50.5172975984832
 20
25.47734394195532
 10
50.53229759848318
 20
25.46234394195532
 10
50.88429759848319
 20
25.46234394195531
 42
0.6693764950687069
 10
50.89486902705459
 20
25.48798560056473
 42
-0.1997729274168804
 10
50.8682975984832
 20
25.55183555222118
 10
50.8682975984832
 20
25.56234394195531
 42
-0.4142135623730717
 10
50.91829759848318
 20
25.61234394195531
 10
51.00629759848317
 20
25.61234394195532
 42
-0.4142135623730951
 10
51.05629759848318
 20
25.56234394195531
 10
51.05629759848318
 20
25.55183555222118
 42
-0.1997729274168747
 10
51.02972616991173
 20
25.48798560056473
 42
0.6693764950687263
 10
51.04029759848316
 20
25.46234394195531
 10
51.12229759848318
 20
25.46234394195531
 42
0.4142135623730951
 10
51.1422975984832
 20
25.48234394195532
 10
51.1422975984832
 20
33.71234394195531
 10
48.6422975984832
 20
33.71234394195534
 10
48.6422975984832
 20
25.48234394195532
 42
0.4142135623730951
 10
48.66229759848318
 20
25.46234394195531
 10
48.74429759848317
 20
25.46234394195531
 42
0.6693764950687414
 10
48.75486902705461
 20
25.48798560056474
 42
-0.1997729274168794
 10
48.72829759848318
 20
25.55183555222118
 10
48.72829759848318
 20
25.56234394195531
 42
-0.4142135623730847
 10
48.77829759848316
 20
25.61234394195532
 10
48.86629759848318
 20
25.61234394195531
 42
-0.4142135623730847
 10
48.9162975984832
 20
25.56234394195531
 10
48.91629759848317
 20
25.55183555222118
 42
-0.1997729274168768
 10
48.88972616991174
 20
25.48798560056472
 42
0.6693764950687222
 10
48.90029759848317
 20
25.46234394195531
 10
49.25229759848318
 20
25.46234394195532
 10
49.2672975984832
 20
25.47734394195532
 10
49.28229759848318
 20
25.46234394195532
 10
49.62929759848316
 20
25.46234394195533
 42
-0.4142135623730951
  0
LINE
  5
B2A0
330
17
100
AcDbEntity
  8
R-SWTS-DET2
100
AcDbLine
 10
49.3922975984832
 20
33.30284394195532
 30
0.0
 11
49.3922975984832
 21
25.92784394195532
 31
0.0
  0
LINE
  5
B2A1
330
17
100
AcDbEntity
  8
R-SWTS-DET2
100
AcDbLine
 10
49.74229759848319
 20
33.30284394195532
 30
0.0
 11
49.74229759848319
 21
25.92784394195532
 31
0.0
  0
LINE
  5
B2A2
330
17
100
AcDbEntity
  8
R-SWTS-DET2
100
AcDbLine
 10
49.84729759848318
 20
33.30284394195532
 30
0.0
 11
49.84729759848318
 21
25.92784394195532
 31
0.0
  0
LINE
  5
B2A3
330
17
100
AcDbEntity
  8
R-SWTS-DET2
100
AcDbLine
 10
49.93729759848318
 20
33.30284394195532
 30
0.0
 11
49.93729759848318
 21
25.92784394195532
 31
0.0
  0
LINE
  5
B2A4
330
17
100
AcDbEntity
  8
R-SWTS-DET2
100
AcDbLine
 10
50.04229759848318
 20
33.30284394195532
 30
0.0
 11
50.04229759848318
 21
25.92784394195532
 31
0.0
  0
LINE
  5
B2A5
330
17
100
AcDbEntity
  8
R-SWTS-DET2
100
AcDbLine
 10
50.3922975984832
 20
33.30284394195532
 30
0.0
 11
50.3922975984832
 21
25.92784394195532
 31
0.0
  0
LWPOLYLINE
  5
B2A6
330
17
100
AcDbEntity
  8
R-SWTS-DET1
100
AcDbPolyline
 90
        6
 70
     0
 43
0.0
 10
53.1422975984832
 20
22.96234394195533
 10
53.1422975984832
 20
28.36859394195533
 10
52.93004540836031
 20
28.42151435661775
 10
53.35486998619572
 20
28.52743502016816
 10
53.14261779607284
 20
28.58035543483058
 10
53.14261779607284
 20
33.98660543483058
  0
LWPOLYLINE
  5
B2A7
330
17
100
AcDbEntity
  8
R-SWTS-DET1
100
AcDbPolyline
 90
        6
 70
     0
 43
0.0
 10
46.6422975984832
 20
22.96234394195533
 10
46.6422975984832
 20
28.36859394195533
 10
46.43004540836031
 20
28.42151435661775
 10
46.85486998619572
 20
28.52743502016816
 10
46.64261779607284
 20
28.58035543483058
 10
46.64261779607284
 20
33.98660543483058
  0
SOLID
  5
B2A8
330
17
100
AcDbEntity
  8
R-ANNO-DIMS
100
AcDbTrace
 10
48.89229759848319
 20
21.50401060862199
 30
0.0
 11
48.89229759848319
 21
21.42067727528866
 31
0.0
 12
48.6422975984832
 22
21.46234394195532
 32
0.0
 13
48.6422975984832
 23
21.46234394195532
 33
0.0
  0
LWPOLYLINE
  5
B2A9
330
17
100
AcDbEntity
  8
R-SWTS-DET1
100
AcDbPolyline
 90
       59
 70
     1
 43
0.0
 10
50.8282975984832
 20
23.72634394195533
 10
50.94229759848315
 20
23.72634394195533
 10
50.94229759848315
 20
23.59151927276318
 10
50.88157459292915
 20
23.48634394195533
 42
1.000000000000009
 10
50.95085662523189
 20
23.44634394195534
 10
51.05629759848316
 20
23.62897306482604
 42
-0.849090458656993
 10
51.07229759848315
 20
23.72634394195532
 10
51.11229759848317
 20
23.72634394195532
 42
0.4142135623731122
 10
51.1422975984832
 20
23.75634394195532
 10
51.1422975984832
 20
23.94234394195533
 42
0.4142135623730951
 10
51.12229759848318
 20
23.96234394195532
 10
51.04029759848319
 20
23.96234394195532
 42
0.6693764950686889
 10
51.02972616991175
 20
23.93670228334591
 42
-0.1997729274168814
 10
51.05629759848318
 20
23.87285233168946
 10
51.05629759848318
 20
23.86234394195533
 42
-0.4142135623731054
 10
51.00629759848317
 20
23.81234394195533
 10
50.91829759848318
 20
23.81234394195534
 42
-0.4142135623730951
 10
50.8682975984832
 20
23.86234394195533
 10
50.8682975984832
 20
23.87285233168946
 42
-0.1997729274168702
 10
50.89486902705459
 20
23.93670228334592
 42
0.6693764950687497
 10
50.88429759848316
 20
23.96234394195532
 10
50.11729759848316
 20
23.96234394195532
 10
50.10229759848318
 20
23.97734394195532
 10
50.08729759848319
 20
23.96234394195532
 10
49.69729759848317
 20
23.96234394195532
 10
49.68229759848319
 20
23.97734394195532
 10
49.66729759848317
 20
23.96234394195532
 10
48.90029759848317
 20
23.96234394195532
 42
0.6693764950687072
 10
48.88972616991174
 20
23.93670228334592
 42
-0.1997729274168761
 10
48.9162975984832
 20
23.87285233168946
 10
48.9162975984832
 20
23.86234394195533
 42
-0.4142135623730951
 10
48.86629759848318
 20
23.81234394195534
 10
48.77829759848316
 20
23.81234394195533
 42
-0.4142135623731054
 10
48.72829759848318
 20
23.86234394195533
 10
48.72829759848318
 20
23.87285233168946
 42
-0.1997729274168748
 10
48.75486902705461
 20
23.93670228334591
 42
0.6693764950686886
 10
48.74429759848317
 20
23.96234394195532
 10
48.66229759848318
 20
23.96234394195532
 42
0.4142135623730951
 10
48.6422975984832
 20
23.94234394195533
 10
48.6422975984832
 20
23.75634394195532
 42
0.4142135623731039
 10
48.67229759848317
 20
23.72634394195533
 10
48.71229759848318
 20
23.72634394195533
 42
-0.8490904586570017
 10
48.72829759848321
 20
23.62897306482601
 10
48.83373857173447
 20
23.44634394195534
 42
1.000000000000009
 10
48.90302060403723
 20
23.48634394195533
 10
48.84229759848321
 20
23.59151927276318
 10
48.84229759848321
 20
23.72634394195533
 10
48.95629759848316
 20
23.72634394195533
 42
0.4142135623730516
 10
49.01629759848316
 20
23.78634394195532
 10
49.01629759848316
 20
23.86234394195533
 10
49.56729759848318
 20
23.86234394195533
 10
49.59229759848319
 20
23.83734394195533
 10
49.87729759848318
 20
23.83734394195533
 10
49.8922975984832
 20
23.85234394195533
 10
49.90729759848318
 20
23.83734394195533
 10
50.19229759848318
 20
23.83734394195533
 10
50.21729759848319
 20
23.86234394195533
 10
50.76829759848317
 20
23.86234394195533
 10
50.7682975984832
 20
23.78634394195532
 42
0.4142135623730518
  0
LWPOLYLINE
  5
B2AA
330
17
100
AcDbEntity
  8
R-SWTS-DET1
100
AcDbPolyline
 90
       14
 70
     1
 43
0.0
 10
51.09229759848318
 20
23.27234394195533
 10
51.09229759848318
 20
23.63634394195532
 10
51.06229759848315
 20
23.63634394195532
 42
-1.0
 10
51.06229759848315
 20
23.71634394195532
 10
51.08229759848319
 20
23.71634394195532
 42
-0.4142135623730908
 10
51.1422975984832
 20
23.65634394195532
 10
51.1422975984832
 20
23.21234394195533
 10
48.6422975984832
 20
23.21234394195533
 10
48.6422975984832
 20
23.65634394195532
 42
-0.4142135623730907
 10
48.7022975984832
 20
23.71634394195532
 10
48.72229759848321
 20
23.71634394195532
 42
-1.0
 10
48.72229759848321
 20
23.63634394195532
 10
48.69229759848318
 20
23.63634394195532
 10
48.69229759848318
 20
23.27234394195533
  0
LWPOLYLINE
  5
B2AB
330
17
100
AcDbEntity
  8
R-SWTS-DET1
100
AcDbPolyline
 90
       52
 70
     1
 43
0.0
 10
48.6422975984832
 20
25.31734394195532
 42
-0.4142135623730951
 10
48.66229759848318
 20
25.33734394195532
 10
48.7792975984832
 20
25.33734394195532
 10
48.7792975984832
 20
25.51234394195532
 10
48.75929759848318
 20
25.51234394195532
 42
-0.6418694421004242
 10
48.74793936523184
 20
25.53714141802868
 10
48.78658113198048
 20
25.58193889410203
 42
-0.6951432498197458
 10
48.8392975984832
 20
25.56234394195532
 10
48.8392975984832
 20
25.46234394195532
 10
48.93929759848319
 20
25.46234394195533
 42
-0.4142135623730951
 10
48.9592975984832
 20
25.44234394195533
 10
48.9592975984832
 20
25.42234394195533
 42
-0.4142135623730951
 10
48.93929759848319
 20
25.40234394195533
 10
48.8392975984832
 20
25.40234394195532
 10
48.8392975984832
 20
25.09008194498568
 42
-0.2679491924311423
 10
48.80929759848317
 20
25.03812042075862
 10
48.7022975984832
 20
24.97634394195534
 10
48.7022975984832
 20
24.92234394195533
 10
48.86629759848318
 20
24.92234394195533
 42
-0.4142135623730744
 10
48.9762975984832
 20
24.81234394195532
 10
48.9762975984832
 20
24.77234394195533
 10
49.32429759848318
 20
24.77234394195534
 10
49.32429759848318
 20
25.26934394195522
 42
-0.1989123673796571
 10
49.34187119161197
 20
25.31177034882642
 10
49.46687119161203
 20
25.43677034882647
 42
-0.1989123673796589
 10
49.50929759848321
 20
25.45434394195527
 10
49.61929759848323
 20
25.45434394195527
 42
-0.4142135623730951
 10
49.63929759848324
 20
25.43434394195528
 10
49.63929759848324
 20
25.41434394195527
 42
-0.4142135623730951
 10
49.61929759848323
 20
25.39434394195527
 10
49.50929759848321
 20
25.39434394195527
 10
49.38429759848318
 20
25.26934394195522
 10
49.38429759848318
 20
24.77234394195534
 42
-0.414213562373088
 10
49.32429759848318
 20
24.71234394195533
 10
48.90029759848317
 20
24.71234394195533
 42
-0.6693764950687673
 10
48.88972616991174
 20
24.73798560056474
 42
0.1997729274168782
 10
48.9162975984832
 20
24.80183555222119
 10
48.9162975984832
 20
24.81234394195532
 42
0.4142135623730744
 10
48.86629759848318
 20
24.86234394195533
 10
48.77829759848316
 20
24.86234394195533
 42
0.4142135623730951
 10
48.72829759848318
 20
24.81234394195533
 10
48.72829759848318
 20
24.80183555222119
 42
0.1997729274168749
 10
48.75486902705461
 20
24.73798560056474
 42
-0.6693764950687617
 10
48.74429759848317
 20
24.71234394195533
 10
48.66229759848318
 20
24.71234394195533
 42
-0.4142135623730429
 10
48.6422975984832
 20
24.73234394195532
 10
48.6422975984832
 20
24.97634394195534
 42
-0.2679491924311414
 10
48.67229759848317
 20
25.0283054661824
 10
48.7792975984832
 20
25.09008194498568
 10
48.7792975984832
 20
25.27734394195532
 10
48.66229759848318
 20
25.27734394195532
 42
-0.4142135623730951
 10
48.6422975984832
 20
25.29734394195532
  0
LWPOLYLINE
  5
B2AC
330
17
100
AcDbEntity
  8
R-SWTS-DET3
100
AcDbPolyline
 90
        4
 70
     0
 43
0.0
 10
46.6422975984832
 20
24.46234394195533
 10
49.1422975984832
 20
24.46234394195533
 10
49.1422975984832
 20
24.21234394195533
 10
46.6422975984832
 20
24.21234394195533
  0
LINE
  5
B2AD
330
17
100
AcDbEntity
  8
R-ANNO-DIMS
100
AcDbLine
 10
48.6422975984832
 20
22.83734394195533
 30
0.0
 11
48.6422975984832
 21
21.28234394195533
 31
0.0
  0
LINE
  5
B2AE
330
17
100
AcDbEntity
  8
R-ANNO-DIMS
100
AcDbLine
 10
48.6422975984832
 20
22.83734394195533
 30
0.0
 11
48.6422975984832
 21
21.28234394195533
 31
0.0
  0
MTEXT
  5
B2AF
330
17
100
AcDbEntity
  8
R-ANNO-DIMS
100
AcDbMText
 10
47.64229759848319
 20
21.68734394195533
 30
0.0
 40
0.25
 41
0.0
 46
0.0
 71
     5
 72
     1
  1
\A1;DLO
 73
     1
 44
1.0
  0
LINE
  5
B2B0
330
17
100
AcDbEntity
  8
R-ANNO-DIMS
100
AcDbLine
 10
48.39229759848319
 20
21.46234394195532
 30
0.0
 11
46.89229759848319
 21
21.46234394195532
 31
0.0
  0
SOLID
  5
B2B1
330
17
100
AcDbEntity
  8
R-ANNO-DIMS
100
AcDbTrace
 10
46.89229759848319
 20
21.50401060862199
 30
0.0
 11
46.89229759848319
 21
21.42067727528866
 31
0.0
 12
46.6422975984832
 22
21.46234394195532
 32
0.0
 13
46.6422975984832
 23
21.46234394195532
 33
0.0
  0
SOLID
  5
B2B2
330
17
100
AcDbEntity
  8
R-ANNO-DIMS
100
AcDbTrace
 10
48.39229759848319
 20
21.50401060862199
 30
0.0
 11
48.39229759848319
 21
21.42067727528866
 31
0.0
 12
48.6422975984832
 22
21.46234394195532
 32
0.0
 13
48.6422975984832
 23
21.46234394195532
 33
0.0
  0
LINE
  5
B2B3
330
17
100
AcDbEntity
  8
R-SWTS-DET2
100
AcDbLine
 10
48.50537654135121
 20
24.46209886397918
 30
0.0
 11
48.58191197442209
 21
25.00209886397917
 31
0.0
  0
LINE
  5
B2B4
330
17
100
AcDbEntity
  8
R-SWTS-DET2
100
AcDbLine
 10
48.59927721033836
 20
23.67258901993147
 30
0.0
 11
46.6422975984832
 21
23.67258901993147
 31
0.0
  0
LINE
  5
B2B5
330
17
100
AcDbEntity
  8
R-SWTS-DET1
100
AcDbLine
 10
48.6422975984832
 20
23.21234394195533
 30
0.0
 11
46.6422975984832
 21
23.21234394195533
 31
0.0
  0
LINE
  5
B2B6
330
17
100
AcDbEntity
  8
R-SWTS-DET2
100
AcDbLine
 10
48.50537654135121
 20
24.21258901993147
 30
0.0
 11
48.58191197442209
 21
23.67258901993148
 31
0.0
  0
LINE
  5
B2B7
330
17
100
AcDbEntity
  8
R-SWTS-DET2
100
AcDbLine
 10
48.6419119744221
 20
23.67258901993146
 30
0.0
 11
48.6419119744221
 21
23.78821987764482
 31
0.0
  0
LINE
  5
B2B8
330
17
100
AcDbEntity
  8
R-SWTS-DET2
100
AcDbLine
 10
48.58191197442209
 20
23.67258901993148
 30
0.0
 11
48.6419119744221
 21
23.67258901993146
 31
0.0
  0
LINE
  5
B2B9
330
17
100
AcDbEntity
  8
R-SWTS-DET2
100
AcDbLine
 10
48.59927721033836
 20
25.00209886397918
 30
0.0
 11
46.6422975984832
 21
25.00209886397918
 31
0.0
  0
LINE
  5
B2BA
330
17
100
AcDbEntity
  8
R-SWTS-DET1
100
AcDbLine
 10
48.6422975984832
 20
25.33734394195532
 30
0.0
 11
46.6422975984832
 21
25.33734394195532
 31
0.0
  0
LINE
  5
B2BB
330
17
100
AcDbEntity
  8
R-SWTS-DET1
100
AcDbLine
 10
48.6422975984832
 20
25.46234394195533
 30
0.0
 11
46.6422975984832
 21
25.46234394195533
 31
0.0
  0
LINE
  5
B2BC
330
17
100
AcDbEntity
  8
R-SWTS-DET1
100
AcDbLine
 10
48.6422975984832
 20
25.27734394195532
 30
0.0
 11
46.6422975984832
 21
25.27734394195532
 31
0.0
  0
LINE
  5
B2BD
330
17
100
AcDbEntity
  8
R-SWTS-DET2
100
AcDbLine
 10
48.6419119744221
 20
25.00209886397918
 30
0.0
 11
48.6419119744221
 21
24.88646800626584
 31
0.0
  0
LINE
  5
B2BE
330
17
100
AcDbEntity
  8
R-SWTS-DET2
100
AcDbLine
 10
48.58191197442209
 20
25.00209886397917
 30
0.0
 11
48.6419119744221
 21
25.00209886397918
 31
0.0
  0
LINE
  5
B2BF
330
17
100
AcDbEntity
  8
R-ANNO-DIMS
100
AcDbLine
 10
51.1422975984832
 20
22.83734394195533
 30
0.0
 11
51.1422975984832
 21
21.28234394195533
 31
0.0
  0
LINE
  5
B2C0
330
17
100
AcDbEntity
  8
R-ANNO-DIMS
100
AcDbLine
 10
51.1422975984832
 20
22.83734394195533
 30
0.0
 11
51.1422975984832
 21
21.28234394195533
 31
0.0
  0
SOLID
  5
B2C1
330
17
100
AcDbEntity
  8
R-ANNO-DIMS
100
AcDbTrace
 10
51.39229759848319
 20
21.50401060862199
 30
0.0
 11
51.39229759848319
 21
21.42067727528866
 31
0.0
 12
51.1422975984832
 22
21.46234394195532
 32
0.0
 13
51.1422975984832
 23
21.46234394195532
 33
0.0
  0
MTEXT
  5
B2C2
330
17
100
AcDbEntity
  8
R-ANNO-DIMS
100
AcDbMText
 10
49.8922975984832
 20
21.68734394195533
 30
0.0
 40
0.25
 41
0.0
 46
0.0
 71
     5
 72
     1
  1
\A1;2 1/2"
 73
     1
 44
1.0
  0
LINE
  5
B2C3
330
17
100
AcDbEntity
  8
R-ANNO-DIMS
100
AcDbLine
 10
50.89229759848319
 20
21.46234394195532
 30
0.0
 11
48.89229759848319
 21
21.46234394195532
 31
0.0
  0
SOLID
  5
B2C4
330
17
100
AcDbEntity
  8
R-ANNO-DIMS
100
AcDbTrace
 10
50.89229759848319
 20
21.50401060862199
 30
0.0
 11
50.89229759848319
 21
21.42067727528866
 31
0.0
 12
51.1422975984832
 22
21.46234394195532
 32
0.0
 13
51.1422975984832
 23
21.46234394195532
 33
0.0
  0
MTEXT
  5
B2C5
330
17
100
AcDbEntity
  8
R-ANNO-DIMS
100
AcDbMText
 10
52.14229759848319
 20
21.68734394195533
 30
0.0
 40
0.25
 41
0.0
 46
0.0
 71
     5
 72
     1
  1
\A1;DLO
 73
     1
 44
1.0
  0
LINE
  5
B2C6
330
17
100
AcDbEntity
  8
R-ANNO-DIMS
100
AcDbLine
 10
51.39229759848319
 20
21.46234394195532
 30
0.0
 11
52.8922975984832
 21
21.46234394195532
 31
0.0
  0
SOLID
  5
B2C7
330
17
100
AcDbEntity
  8
R-ANNO-DIMS
100
AcDbTrace
 10
52.8922975984832
 20
21.50401060862199
 30
0.0
 11
52.8922975984832
 21
21.42067727528866
 31
0.0
 12
53.1422975984832
 22
21.46234394195532
 32
0.0
 13
53.1422975984832
 23
21.46234394195532
 33
0.0
  0
LINE
  5
B2C8
330
17
100
AcDbEntity
  8
R-SWTS-DET2
  6
CENTER
100
AcDbLine
 10
51.81829759848318
 20
26.83734394195531
 30
0.0
 11
49.91729759848317
 21
26.83734394195531
 31
0.0
  0
LINE
  5
B2C9
330
17
100
AcDbEntity
  8
R-SWTS-DET2
  6
Continuous
100
AcDbLine
 10
51.54229759848317
 20
26.94534394195532
 30
0.0
 11
50.22979759848317
 21
26.94534394195532
 31
0.0
  0
LINE
  5
B2CA
330
17
100
AcDbEntity
  8
R-SWTS-DET2
  6
Continuous
100
AcDbLine
 10
51.54229759848317
 20
26.72934394195531
 30
0.0
 11
50.22979759848317
 21
26.72934394195531
 31
0.0
  0
LINE
  5
B2CB
330
17
100
AcDbEntity
  8
R-SWTS-DET2
100
AcDbLine
 10
51.20268322254426
 20
23.67258901993148
 30
0.0
 11
51.14268322254426
 21
23.67258901993146
 31
0.0
  0
LINE
  5
B2CC
330
17
100
AcDbEntity
  8
R-SWTS-DET2
100
AcDbLine
 10
51.20268322254426
 20
25.00209886397917
 30
0.0
 11
51.14268322254426
 21
25.00209886397918
 31
0.0
  0
LWPOLYLINE
  5
B2CD
330
17
100
AcDbEntity
  8
R-SWTS-DET3
100
AcDbPolyline
 90
        4
 70
     0
 43
0.0
 10
53.1422975984832
 20
24.46234394195533
 10
50.6422975984832
 20
24.46234394195533
 10
50.6422975984832
 20
24.21234394195533
 10
53.1422975984832
 20
24.21234394195533
  0
LINE
  5
B2CE
330
17
100
AcDbEntity
  8
R-SWTS-DET2
100
AcDbLine
 10
51.185317986628
 20
23.67258901993147
 30
0.0
 11
53.1422975984832
 21
23.67258901993147
 31
0.0
  0
LINE
  5
B2CF
330
17
100
AcDbEntity
  8
R-SWTS-DET1
100
AcDbLine
 10
51.1422975984832
 20
25.46234394195533
 30
0.0
 11
53.1422975984832
 21
25.46234394195533
 31
0.0
  0
LINE
  5
B2D0
330
17
100
AcDbEntity
  8
R-SWTS-DET2
100
AcDbLine
 10
51.185317986628
 20
25.00209886397918
 30
0.0
 11
53.1422975984832
 21
25.00209886397918
 31
0.0
  0
LINE
  5
B2D1
330
17
100
AcDbEntity
  8
R-SWTS-DET1
100
AcDbLine
 10
51.1422975984832
 20
25.27734394195532
 30
0.0
 11
53.1422975984832
 21
25.27734394195532
 31
0.0
  0
LINE
  5
B2D2
330
17
100
AcDbEntity
  8
R-SWTS-DET1
100
AcDbLine
 10
51.1422975984832
 20
25.33734394195532
 30
0.0
 11
53.1422975984832
 21
25.33734394195532
 31
0.0
  0
LINE
  5
B2D3
330
17
100
AcDbEntity
  8
R-SWTS-DET1
100
AcDbLine
 10
51.1422975984832
 20
23.21234394195533
 30
0.0
 11
53.1422975984832
 21
23.21234394195533
 31
0.0
  0
LINE
  5
B2D4
330
17
100
AcDbEntity
  8
R-SWTS-DET2
100
AcDbLine
 10
49.76690759848318
 20
24.50234394195535
 30
0.0
 11
49.8922975984832
 21
24.83734394195535
 31
0.0
  0
LINE
  5
B2D5
330
17
100
AcDbEntity
  8
R-SWTS-DET2
100
AcDbLine
 10
49.8922975984832
 20
24.83734394195535
 30
0.0
 11
50.01767759848317
 21
24.50234394195535
 31
0.0
  0
LINE
  5
B2D6
330
17
100
AcDbEntity
  8
R-SWTS-DET2
  6
CENTER
100
AcDbLine
 10
49.8922975984832
 20
23.35283894195534
 30
0.0
 11
49.8922975984832
 21
25.0466493172171
 31
0.0
  0
LINE
  5
B2D7
330
17
100
AcDbEntity
  8
R-SWTS-DET2
100
AcDbLine
 10
49.12191197442209
 20
24.71209886397918
 30
0.0
 11
49.12191197442209
 21
24.46209886397918
 31
0.0
  0
LINE
  5
B2D8
330
17
100
AcDbEntity
  8
R-SWTS-DET2
100
AcDbLine
 10
50.66268322254427
 20
24.71209886397918
 30
0.0
 11
50.66268322254427
 21
24.46209886397918
 31
0.0
  0
LWPOLYLINE
  5
B2D9
330
17
100
AcDbEntity
  8
R-SWTS-DET2
100
AcDbPolyline
 90
       10
 70
     1
 43
0.0
 10
50.9857975984832
 20
23.27234394195533
 42
0.4142135623730951
 10
51.01679759848318
 20
23.30334394195533
 10
51.01679759848318
 20
23.49134394195532
 10
50.9857975984832
 20
23.49134394195533
 10
50.9857975984832
 20
23.30334394195533
 10
48.79879759848319
 20
23.30334394195533
 10
48.79879759848319
 20
23.49134394195533
 10
48.76779759848318
 20
23.49134394195532
 10
48.76779759848318
 20
23.30334394195533
 42
0.4142135623730951
 10
48.79879759848319
 20
23.27234394195533
  0
LINE
  5
B2DA
330
17
100
AcDbEntity
  8
R-SWTS-DET1
100
AcDbLine
 10
50.14229759848319
 20
23.83734394195535
 30
0.0
 11
49.64229759848319
 21
23.83734394195535
 31
0.0
  0
LINE
  5
B2DB
330
17
100
AcDbEntity
  8
R-SWTS-DET2
100
AcDbLine
 10
50.14229759848319
 20
23.79734394195535
 30
0.0
 11
49.64229759848319
 21
23.79734394195535
 31
0.0
  0
ARC
  5
B2DC
330
17
100
AcDbEntity
  8
R-SWTS-DET2
100
AcDbCircle
 10
49.8922975984832
 20
23.78758894195534
 30
0.0
 40
0.16484915
100
AcDbArc
 50
232.0122999999998
 51
307.9877000000002
  0
LINE
  5
B2DD
330
17
100
AcDbEntity
  8
R-SWTS-DET2
100
AcDbLine
 10
50.04447759848318
 20
23.62273894195535
 30
0.0
 11
49.74010259848319
 21
23.62273894195535
 31
0.0
  0
LINE
  5
B2DE
330
17
100
AcDbEntity
  8
R-SWTS-DET2
100
AcDbLine
 10
50.07888759848317
 20
23.65373894195535
 30
0.0
 11
49.7056975984832
 21
23.65373894195535
 31
0.0
  0
LINE
  5
B2DF
330
17
100
AcDbEntity
  8
R-SWTS-DET2
100
AcDbLine
 10
49.12191197442209
 20
23.96258901993147
 30
0.0
 11
49.12191197442209
 21
24.21258901993147
 31
0.0
  0
LINE
  5
B2E0
330
17
100
AcDbEntity
  8
R-SWTS-DET2
100
AcDbLine
 10
49.76690759848318
 20
23.83734394195535
 30
0.0
 11
49.76690759848318
 21
24.50234394195535
 31
0.0
  0
LINE
  5
B2E1
330
17
100
AcDbEntity
  8
R-SWTS-DET2
100
AcDbLine
 10
49.57929759848318
 20
24.21234394195533
 30
0.0
 11
49.57929759848318
 21
23.96234394195532
 31
0.0
  0
LINE
  5
B2E2
330
17
100
AcDbEntity
  8
R-SWTS-DET2
100
AcDbLine
 10
49.64179759848318
 20
23.96234394195532
 30
0.0
 11
49.57929759848318
 21
23.96234394195532
 31
0.0
  0
LINE
  5
B2E3
330
17
100
AcDbEntity
  8
R-SWTS-DET2
100
AcDbLine
 10
49.79083259848318
 20
23.65766394195534
 30
0.0
 11
49.79083259848318
 21
23.79734394195535
 31
0.0
  0
LINE
  5
B2E4
330
17
100
AcDbEntity
  8
R-SWTS-DET2
100
AcDbLine
 10
49.68937759848319
 20
23.65766394195534
 30
0.0
 11
49.68937759848319
 21
23.79734394195535
 31
0.0
  0
ARC
  5
B2E5
330
17
100
AcDbEntity
  8
R-SWTS-DET2
100
AcDbCircle
 10
49.74010259848319
 20
23.67704894195534
 30
0.0
 40
0.0543126
100
AcDbArc
 50
200.9107000000004
 51
339.0892999999995
  0
LINE
  5
B2E6
330
17
100
AcDbEntity
  8
R-SWTS-DET2
100
AcDbLine
 10
49.7056975984832
 20
23.63503394195534
 30
0.0
 11
49.7056975984832
 21
23.65373894195535
 31
0.0
  0
LINE
  5
B2E7
330
17
100
AcDbEntity
  8
R-SWTS-DET2
100
AcDbLine
 10
49.64229759848319
 20
23.79734394195535
 30
0.0
 11
49.64229759848319
 21
23.83734394195535
 31
0.0
  0
LINE
  5
B2E8
330
17
100
AcDbEntity
  8
R-SWTS-DET1
100
AcDbLine
 10
49.75929759848319
 20
23.96234394195532
 30
0.0
 11
49.75929759848319
 21
23.83734394195533
 31
0.0
  0
LINE
  5
B2E9
330
17
100
AcDbEntity
  8
R-SWTS-DET2
100
AcDbLine
 10
49.64179759848318
 20
24.21234394195533
 30
0.0
 11
49.57929759848318
 21
24.21234394195533
 31
0.0
  0
LINE
  5
B2EA
330
17
100
AcDbEntity
  8
R-SWTS-DET2
100
AcDbLine
 10
50.01767759848317
 20
23.83734394195535
 30
0.0
 11
50.01767759848317
 21
24.50234394195535
 31
0.0
  0
LINE
  5
B2EB
330
17
100
AcDbEntity
  8
R-SWTS-DET2
100
AcDbLine
 10
50.20529759848319
 20
23.96234394195532
 30
0.0
 11
50.20529759848319
 21
24.21234394195533
 31
0.0
  0
LINE
  5
B2EC
330
17
100
AcDbEntity
  8
R-SWTS-DET2
100
AcDbLine
 10
49.99375259848318
 20
23.65766394195534
 30
0.0
 11
49.99375259848318
 21
23.79734394195535
 31
0.0
  0
LINE
  5
B2ED
330
17
100
AcDbEntity
  8
R-SWTS-DET2
100
AcDbLine
 10
50.09520759848317
 20
23.65766394195534
 30
0.0
 11
50.09520759848317
 21
23.79734394195535
 31
0.0
  0
ARC
  5
B2EE
330
17
100
AcDbEntity
  8
R-SWTS-DET2
100
AcDbCircle
 10
50.04447759848318
 20
23.67704894195534
 30
0.0
 40
0.0543126
100
AcDbArc
 50
200.9107000000004
 51
339.0892999999995
  0
LINE
  5
B2EF
330
17
100
AcDbEntity
  8
R-SWTS-DET2
100
AcDbLine
 10
50.07888759848317
 20
23.63503394195534
 30
0.0
 11
50.07888759848317
 21
23.65373894195535
 31
0.0
  0
LINE
  5
B2F0
330
17
100
AcDbEntity
  8
R-SWTS-DET1
100
AcDbLine
 10
50.02529759848318
 20
23.96234394195532
 30
0.0
 11
50.02529759848318
 21
23.83734394195533
 31
0.0
  0
LINE
  5
B2F1
330
17
100
AcDbEntity
  8
R-SWTS-DET2
100
AcDbLine
 10
50.14229759848319
 20
23.79734394195535
 30
0.0
 11
50.14229759848319
 21
23.83734394195535
 31
0.0
  0
LINE
  5
B2F2
330
17
100
AcDbEntity
  8
R-SWTS-DET2
100
AcDbLine
 10
50.20529759848319
 20
23.96234394195532
 30
0.0
 11
50.14279759848318
 21
23.96234394195532
 31
0.0
  0
LINE
  5
B2F3
330
17
100
AcDbEntity
  8
R-SWTS-DET2
100
AcDbLine
 10
50.20529759848319
 20
24.21234394195533
 30
0.0
 11
50.14279759848318
 21
24.21234394195533
 31
0.0
  0
LINE
  5
B2F4
330
17
100
AcDbEntity
  8
R-SWTS-DET2
100
AcDbLine
 10
50.66268322254427
 20
23.96258901993147
 30
0.0
 11
50.66268322254427
 21
24.21258901993147
 31
0.0
  0
LINE
  5
B2F5
330
17
100
AcDbEntity
  8
R-SWTS-DET2
100
AcDbLine
 10
51.14268322254426
 20
23.67258901993146
 30
0.0
 11
51.14268322254426
 21
23.78821987764482
 31
0.0
  0
LWPOLYLINE
  5
B2F6
330
17
100
AcDbEntity
  8
R-SWTS-DET2
  6
HIDDEN
100
AcDbPolyline
 90
        8
 70
     1
 43
0.0
 10
49.98729759848316
 20
25.91500462679441
 10
49.98729759848316
 20
26.37188743142246
 10
49.92001398445854
 20
26.53432444492627
 42
0.6681786379193211
 10
49.86458121250786
 20
26.53432444492627
 10
49.79729759848317
 20
26.37188743142244
 10
49.79729759848317
 20
25.91500462679441
 10
49.6997975984832
 20
25.80284394195532
 10
50.08479759848319
 20
25.80284394195532
  0
LINE
  5
B2F7
330
17
100
AcDbEntity
  8
R-SWTS-DET2
100
AcDbLine
 10
48.84529759848317
 20
25.92784394195532
 30
0.0
 11
50.93929759848316
 21
25.92784394195532
 31
0.0
  0
LWPOLYLINE
  5
B2F8
330
17
100
AcDbEntity
  8
R-SWTS-DET2
100
AcDbPolyline
 90
        4
 70
     0
 43
0.0
 10
50.93929759848316
 20
25.92784394195532
 10
50.93929759848316
 20
25.80284394195532
 10
48.84529759848317
 20
25.80284394195532
 10
48.84529759848317
 20
25.92784394195532
  0
LWPOLYLINE
  5
B2F9
330
17
100
AcDbEntity
  8
R-SWTS-DET1
100
AcDbPolyline
 90
       52
 70
     1
 43
0.0
 10
51.1422975984832
 20
25.31734394195532
 42
0.4142135623730951
 10
51.12229759848318
 20
25.33734394195532
 10
51.00529759848317
 20
25.33734394195532
 10
51.00529759848317
 20
25.51234394195532
 10
51.02529759848318
 20
25.51234394195532
 42
0.6418694421004242
 10
51.03665583173452
 20
25.53714141802868
 10
50.99801406498588
 20
25.58193889410203
 42
0.6951432498197458
 10
50.94529759848319
 20
25.56234394195532
 10
50.94529759848319
 20
25.46234394195532
 10
50.84529759848317
 20
25.46234394195533
 42
0.4142135623730951
 10
50.82529759848316
 20
25.44234394195533
 10
50.82529759848316
 20
25.42234394195533
 42
0.4142135623730951
 10
50.84529759848317
 20
25.40234394195533
 10
50.94529759848319
 20
25.40234394195532
 10
50.94529759848319
 20
25.09008194498568
 42
0.2679491924311423
 10
50.97529759848317
 20
25.03812042075862
 10
51.08229759848319
 20
24.97634394195534
 10
51.08229759848319
 20
24.92234394195533
 10
50.91829759848318
 20
24.92234394195533
 42
0.4142135623730744
 10
50.80829759848319
 20
24.81234394195532
 10
50.80829759848319
 20
24.77234394195533
 10
50.46029759848318
 20
24.77234394195534
 10
50.46029759848318
 20
25.26934394195522
 42
0.1989123673796571
 10
50.44272400535437
 20
25.31177034882642
 10
50.3177240053543
 20
25.43677034882647
 42
0.1989123673796589
 10
50.27529759848312
 20
25.45434394195527
 10
50.16529759848314
 20
25.45434394195527
 42
0.4142135623730951
 10
50.14529759848312
 20
25.43434394195528
 10
50.14529759848312
 20
25.41434394195527
 42
0.4142135623730951
 10
50.16529759848314
 20
25.39434394195527
 10
50.27529759848312
 20
25.39434394195527
 10
50.40029759848318
 20
25.26934394195522
 10
50.40029759848318
 20
24.77234394195534
 42
0.414213562373088
 10
50.46029759848318
 20
24.71234394195533
 10
50.88429759848319
 20
24.71234394195533
 42
0.6693764950687673
 10
50.89486902705459
 20
24.73798560056474
 42
-0.1997729274168782
 10
50.8682975984832
 20
24.80183555222119
 10
50.8682975984832
 20
24.81234394195532
 42
-0.4142135623730744
 10
50.91829759848318
 20
24.86234394195533
 10
51.00629759848317
 20
24.86234394195533
 42
-0.4142135623730951
 10
51.05629759848318
 20
24.81234394195533
 10
51.05629759848318
 20
24.80183555222119
 42
-0.1997729274168749
 10
51.02972616991175
 20
24.73798560056474
 42
0.6693764950687617
 10
51.04029759848319
 20
24.71234394195532
 10
51.12229759848318
 20
24.71234394195533
 42
0.4142135623730429
 10
51.1422975984832
 20
24.73234394195532
 10
51.1422975984832
 20
24.97634394195534
 42
0.2679491924311414
 10
51.11229759848317
 20
25.0283054661824
 10
51.00529759848317
 20
25.09008194498568
 10
51.00529759848317
 20
25.27734394195532
 10
51.12229759848318
 20
25.27734394195532
 42
0.4142135623730951
 10
51.1422975984832
 20
25.29734394195532
  0
LINE
  5
B2FA
330
17
100
AcDbEntity
  8
R-SWTS-DET2
100
AcDbLine
 10
51.14268322254426
 20
25.00209886397918
 30
0.0
 11
51.14268322254426
 21
24.88646800626584
 31
0.0
  0
LINE
  5
B2FB
330
17
100
AcDbEntity
  8
R-SWTS-DET2
  6
Continuous
100
AcDbLine
 10
50.04229759848318
 20
26.83734394195531
 30
0.0
 11
50.22979759848317
 21
26.94534394195532
 31
0.0
  0
LINE
  5
B2FC
330
17
100
AcDbEntity
  8
R-SWTS-DET2
  6
Continuous
100
AcDbLine
 10
50.22979759848317
 20
26.72934394195531
 30
0.0
 11
50.04229759848318
 21
26.83734394195531
 31
0.0
  0
LINE
  5
B2FD
330
17
100
AcDbEntity
  8
R-SWTS-DET2
100
AcDbLine
 10
51.27921865561512
 20
24.46209886397918
 30
0.0
 11
51.20268322254426
 21
25.00209886397917
 31
0.0
  0
LINE
  5
B2FE
330
17
100
AcDbEntity
  8
R-SWTS-DET2
100
AcDbLine
 10
51.27921865561512
 20
24.21258901993147
 30
0.0
 11
51.20268322254426
 21
23.67258901993148
 31
0.0
  0
LINE
  5
B2FF
330
17
100
AcDbEntity
  8
R-SWTS-DET2
  6
Continuous
100
AcDbLine
 10
51.54229759848317
 20
27.04984394195532
 30
0.0
 11
51.54229759848317
 21
26.62484394195531
 31
0.0
  0
LINE
  5
B300
330
17
100
AcDbEntity
  8
R-SWTS-DET2
  6
Continuous
100
AcDbLine
 10
51.62155919071887
 20
26.62484394195531
 30
0.0
 11
51.54229759848317
 21
26.62484394195531
 31
0.0
  0
LINE
  5
B301
330
17
100
AcDbEntity
  8
R-SWTS-DET2
  6
Continuous
100
AcDbLine
 10
51.54229759848317
 20
27.04984394195532
 30
0.0
 11
51.61127614367967
 21
27.04984394195532
 31
0.0
  0
TEXT
  5
B302
330
17
100
AcDbEntity
  8
R-ANNO-TEXT
100
AcDbText
 10
47.68028631162252
 20
35.70750964395826
 30
0.0
 40
0.25
  1
128112 #12 X 1-1/2" P.H.S.T.
100
AcDbText
  0
TEXT
  5
B303
330
17
100
AcDbEntity
  8
R-ANNO-TEXT
100
AcDbText
 10
47.68028631162252
 20
35.20750964395825
 30
0.0
 40
0.25
  1
162381 MULLION SLEEVE
100
AcDbText
  0
TEXT
  5
B304
330
17
100
AcDbEntity
  8
R-ANNO-TEXT
100
AcDbText
 10
47.68028631162252
 20
34.70750964395826
 30
0.0
 40
0.25
  1
162313 COVER SLEEVE
100
AcDbText
  0
LINE
  5
B305
330
17
100
AcDbEntity
  8
R-SWTS-DET1
100
AcDbLine
 10
48.64229759848322
 20
33.71234394195531
 30
0.0
 11
46.64229759848322
 21
33.71234394195531
 31
0.0
  0
LINE
  5
B306
330
17
100
AcDbEntity
  8
R-SWTS-DET1
100
AcDbLine
 10
51.14229759848322
 20
33.71234394195531
 30
0.0
 11
53.14229759848323
 21
33.71234394195531
 31
0.0
  0
LWPOLYLINE
  5
B307
330
17
100
AcDbEntity
  8
R-SWTS-DET2
  6
HIDDEN
100
AcDbPolyline
 90
        8
 70
     1
 43
0.0
 10
49.98729759848316
 20
33.31568325711623
 10
49.98729759848316
 20
32.85880045248818
 10
49.92001398445854
 20
32.69636343898438
 42
-0.6681786379193211
 10
49.86458121250786
 20
32.69636343898438
 10
49.79729759848317
 20
32.8588004524882
 10
49.79729759848317
 20
33.31568325711623
 10
49.6997975984832
 20
33.42784394195533
 10
50.08479759848319
 20
33.42784394195533
  0
LINE
  5
B308
330
17
100
AcDbEntity
  8
R-SWTS-DET2
100
AcDbLine
 10
48.84529759848317
 20
33.30284394195532
 30
0.0
 11
50.93929759848316
 21
33.30284394195532
 31
0.0
  0
LWPOLYLINE
  5
B309
330
17
100
AcDbEntity
  8
R-SWTS-DET2
100
AcDbPolyline
 90
        4
 70
     0
 43
0.0
 10
48.84529759848317
 20
33.30284394195532
 10
48.84529759848317
 20
33.42784394195533
 10
50.93929759848316
 20
33.42784394195533
 10
50.93929759848316
 20
33.30284394195532
  0
LINE
  5
B30A
330
17
100
AcDbEntity
  8
R-SWTS-DET1
100
AcDbLine
 10
51.1422975984832
 20
33.71234394195533
 30
0.0
 11
51.12329759848321
 21
33.71234394195533
 31
0.0
  0
LINE
  5
B30B
330
17
100
AcDbEntity
  8
R-ANNO-DIMS
100
AcDbLine
 10
54.89229759848388
 20
23.46234394195533
 30
0.0
 11
54.89229759848388
 21
33.46234394195528
 31
0.0
  0
SOLID
  5
B30C
330
17
100
AcDbEntity
  8
R-ANNO-DIMS
100
AcDbTrace
 10
54.85063093181722
 20
23.46234394195533
 30
0.0
 11
54.93396426515056
 21
23.46234394195533
 31
0.0
 12
54.89229759848388
 22
23.21234394195533
 32
0.0
 13
54.89229759848388
 23
23.21234394195533
 33
0.0
  0
MTEXT
  5
B30D
330
17
100
AcDbEntity
  8
R-ANNO-DIMS
100
AcDbMText
 10
54.66729759848388
 20
28.4623439419553
 30
0.0
 40
0.25
 41
0.0
 46
0.0
 71
     5
 72
     1
  1
\A1;10 1/2"
 11
0.0000000000000001
 21
1.0
 31
0.0
 73
     1
 44
1.0
  0
SOLID
  5
B30E
330
17
100
AcDbEntity
  8
R-ANNO-DIMS
100
AcDbTrace
 10
54.85063093181722
 20
33.46234394195528
 30
0.0
 11
54.93396426515056
 21
33.46234394195528
 31
0.0
 12
54.89229759848388
 22
33.71234394195528
 32
0.0
 13
54.89229759848388
 23
33.71234394195528
 33
0.0
  0
LINE
  5
B30F
330
17
100
AcDbEntity
  8
R-SWTS-DET2
  6
HIDDEN
100
AcDbLine
 10
34.73935483109727
 20
27.04984394195531
 30
0.0
 11
34.73935483109727
 21
26.62484394195531
 31
0.0
  0
LINE
  5
B310
330
17
100
AcDbEntity
  8
R-SWTS-DET2
  6
HIDDEN
100
AcDbLine
 10
34.81861642333297
 20
26.62484394195531
 30
0.0
 11
34.73935483109727
 21
26.62484394195531
 31
0.0
  0
LINE
  5
B311
330
17
100
AcDbEntity
  8
R-SWTS-DET2
  6
HIDDEN
100
AcDbLine
 10
34.73935483109727
 20
26.72934394195531
 30
0.0
 11
33.42685483109728
 21
26.72934394195531
 31
0.0
  0
LINE
  5
B312
330
17
100
AcDbEntity
  8
R-SWTS-DET2
  6
HIDDEN
100
AcDbLine
 10
34.73935483109727
 20
26.94534394195531
 30
0.0
 11
33.42685483109728
 21
26.94534394195531
 31
0.0
  0
LINE
  5
B313
330
17
100
AcDbEntity
  8
R-SWTS-DET2
  6
HIDDEN
100
AcDbLine
 10
34.73935483109727
 20
27.04984394195531
 30
0.0
 11
34.80833337629377
 21
27.04984394195531
 31
0.0
  0
LWPOLYLINE
  5
B314
330
17
100
AcDbEntity
  8
R-SWTS-DET2
  6
HIDDEN
100
AcDbPolyline
 90
        9
 70
     0
 43
0.0
 10
34.81861642333297
 20
26.62484394195531
 42
0.1266889011641713
 10
34.86531126960682
 20
26.68681459580318
 42
0.0558856962682024
 10
34.88380679937904
 20
26.7506425987693
 42
0.0426236080121984
 10
34.89121129979998
 20
26.83734394195531
 42
0.0426236080121983
 10
34.88380679937904
 20
26.92404528514133
 42
0.0558856962682022
 10
34.86531126960682
 20
26.98787328810745
 42
0.0985958869438301
 10
34.83149045105574
 20
27.03835741189264
 42
0.1985442246528007
 10
34.80278306544864
 20
27.05022458481881
 42
0.0342500047400331
 10
34.79723275460347
 20
27.04984394195531
 42
0.0985958869438299
  0
LINE
  5
B315
330
17
100
AcDbEntity
  8
R-SWTS-DET2
  6
CENTER
100
AcDbLine
 10
35.01535483109729
 20
26.83734394195531
 30
0.0
 11
33.11435483109728
 21
26.83734394195531
 31
0.0
  0
LINE
  5
B316
330
17
100
AcDbEntity
  8
R-SWTS-DET2
  6
HIDDEN
100
AcDbLine
 10
33.42685483109728
 20
26.72934394195531
 30
0.0
 11
33.23935483109727
 21
26.83734394195531
 31
0.0
  0
LINE
  5
B317
330
17
100
AcDbEntity
  8
R-SWTS-DET2
  6
HIDDEN
100
AcDbLine
 10
33.23935483109727
 20
26.83734394195531
 30
0.0
 11
33.42685483109728
 21
26.94534394195531
 31
0.0
  0
ARC
  5
B318
330
17
100
AcDbEntity
  8
R-SWTS-DET2
  6
Continuous
100
AcDbCircle
 10
51.52458032741808
 20
26.74649504532408
 30
0.0
 40
0.155575997113807
100
AcDbArc
 50
308.5614503961551
 51
337.4425489854353
  0
ARC
  5
B319
330
17
100
AcDbEntity
  8
R-SWTS-DET2
  6
Continuous
100
AcDbCircle
 10
51.39286432354822
 20
26.80120839784577
 30
0.0
 40
0.2982036824333201
100
AcDbArc
 50
337.4425489854277
 51
350.2372979526532
  0
ARC
  5
B31A
330
17
100
AcDbEntity
  8
R-SWTS-DET2
  6
Continuous
100
AcDbCircle
 10
51.18284681441406
 20
26.83734394195527
 30
0.0
 40
0.5113072527718007
100
AcDbArc
 50
350.2372979526634
 51
0.0000000000047836
  0
ARC
  5
B31B
330
17
100
AcDbEntity
  8
R-SWTS-DET2
  6
Continuous
100
AcDbCircle
 10
51.18284681441403
 20
26.83734394195536
 30
0.0
 40
0.511307252771843
100
AcDbArc
 50
359.9999999999944
 51
9.762702047335793
  0
ARC
  5
B31C
330
17
100
AcDbEntity
  8
R-SWTS-DET2
  6
Continuous
100
AcDbCircle
 10
51.39286432354822
 20
26.87347948606487
 30
0.0
 40
0.2982036824333207
100
AcDbArc
 50
9.762702047346751
 51
22.55745101457224
  0
ARC
  5
B31D
330
17
100
AcDbEntity
  8
R-SWTS-DET2
  6
Continuous
100
AcDbCircle
 10
51.52458032741808
 20
26.92819283858656
 30
0.0
 40
0.1555759971138062
100
AcDbArc
 50
22.55745101456186
 51
45.08116659031855
  0
ARC
  5
B31E
330
17
100
AcDbEntity
  8
R-SWTS-DET2
  6
Continuous
100
AcDbCircle
 10
51.60572583283453
 20
27.00956857568929
 30
0.0
 40
0.0406560091295331
100
AcDbArc
 50
45.08116659032299
 51
90.0
  0
ARC
  5
B31F
330
17
100
AcDbEntity
  8
R-SWTS-DET2
  6
Continuous
100
AcDbCircle
 10
51.60572583283453
 20
27.00956857568927
 30
0.0
 40
0.040656009129556
100
AcDbArc
 50
90.00000000001953
 51
97.84645571031997
  0
LINE
  5
B320
330
17
100
AcDbEntity
  8
R-SWTS-DET2
  6
HIDDEN
100
AcDbLine
 10
51.1422975984832
 20
27.04984394195531
 30
0.0
 11
51.1422975984832
 21
26.62484394195531
 31
0.0
  0
LINE
  5
B321
330
17
100
AcDbEntity
  8
R-SWTS-DET2
  6
HIDDEN
100
AcDbLine
 10
51.22155919071889
 20
26.62484394195531
 30
0.0
 11
51.1422975984832
 21
26.62484394195531
 31
0.0
  0
LINE
  5
B322
330
17
100
AcDbEntity
  8
R-SWTS-DET2
  6
HIDDEN
100
AcDbLine
 10
51.1422975984832
 20
26.72934394195531
 30
0.0
 11
49.82979759848319
 21
26.72934394195531
 31
0.0
  0
LINE
  5
B323
330
17
100
AcDbEntity
  8
R-SWTS-DET2
  6
HIDDEN
100
AcDbLine
 10
51.1422975984832
 20
26.94534394195531
 30
0.0
 11
49.82979759848319
 21
26.94534394195531
 31
0.0
  0
LINE
  5
B324
330
17
100
AcDbEntity
  8
R-SWTS-DET2
  6
HIDDEN
100
AcDbLine
 10
51.1422975984832
 20
27.04984394195531
 30
0.0
 11
51.2112761436797
 21
27.04984394195531
 31
0.0
  0
LWPOLYLINE
  5
B325
330
17
100
AcDbEntity
  8
R-SWTS-DET2
  6
HIDDEN
100
AcDbPolyline
 90
        9
 70
     0
 43
0.0
 10
51.22155919071889
 20
26.62484394195531
 42
0.1266889011641713
 10
51.26825403699275
 20
26.68681459580318
 42
0.0558856962682024
 10
51.28674956676497
 20
26.7506425987693
 42
0.0426236080121984
 10
51.2941540671859
 20
26.83734394195531
 42
0.0426236080121983
 10
51.28674956676497
 20
26.92404528514133
 42
0.0558856962682022
 10
51.26825403699275
 20
26.98787328810745
 42
0.0985958869438301
 10
51.23443321844167
 20
27.03835741189264
 42
0.1985442246528007
 10
51.20572583283453
 20
27.05022458481881
 42
0.0342500047400331
 10
51.20017552198937
 20
27.04984394195531
 42
0.0985958869438299
  0
LINE
  5
B326
330
17
100
AcDbEntity
  8
R-SWTS-DET2
  6
CENTER
100
AcDbLine
 10
51.41829759848318
 20
26.83734394195531
 30
0.0
 11
49.51729759848319
 21
26.83734394195531
 31
0.0
  0
LINE
  5
B327
330
17
100
AcDbEntity
  8
R-SWTS-DET2
  6
HIDDEN
100
AcDbLine
 10
49.82979759848319
 20
26.72934394195531
 30
0.0
 11
49.64229759848319
 21
26.83734394195531
 31
0.0
  0
LINE
  5
B328
330
17
100
AcDbEntity
  8
R-SWTS-DET2
  6
HIDDEN
100
AcDbLine
 10
49.64229759848319
 20
26.83734394195531
 30
0.0
 11
49.82979759848319
 21
26.94534394195531
 31
0.0
  0
LWPOLYLINE
  5
B329
330
17
100
AcDbEntity
  8
PHANTOM
100
AcDbPolyline
 90
        2
 70
     0
 43
0.02
 10
10.68415274191358
 20
33.43487455956945
 10
10.79286940112629
 20
33.15757087825519
  0
LWPOLYLINE
  5
B32A
330
17
100
AcDbEntity
  8
PHANTOM
  6
CENTER
100
AcDbPolyline
 90
        2
 70
     0
 43
0.02
 10
10.79286940112629
 20
33.15757087825519
 10
10.90158606033901
 20
33.43487455956945
  0
LWPOLYLINE
  5
B32B
330
17
100
AcDbEntity
  8
PHANTOM
100
AcDbPolyline
 90
        2
 70
     0
 43
0.02
 10
21.71034099338775
 20
33.51100590040757
 10
21.81905765260046
 20
33.23370221909331
  0
LWPOLYLINE
  5
B32C
330
17
100
AcDbEntity
  8
PHANTOM
  6
CENTER
100
AcDbPolyline
 90
        2
 70
     0
 43
0.02
 10
21.81905765260046
 20
33.23370221909331
 10
21.92777431181318
 20
33.51100590040757
  0
LWPOLYLINE
  5
B32D
330
17
100
AcDbEntity
  8
PHANTOM
100
AcDbPolyline
 90
        4
 70
     0
 43
0.02
 10
10.79286940112629
 20
33.15757087825519
 10
10.79286940112629
 20
33.96677693261535
 10
21.81905765260046
 20
33.96677693261533
 10
21.81905765260046
 20
33.23370221909331
  0
MTEXT
  5
B32E
330
17
100
AcDbEntity
  8
R-ANNO-DIMS
100
AcDbMText
 10
16.29286940112629
 20
34.36311554927979
 30
0.0
 40
0.25
 41
0.0
 46
0.0
 71
     5
 72
     1
  1
SECTION CUT "A"
 73
     1
 44
1.0
  0
TEXT
  5
B32F
330
17
100
AcDbEntity
  8
0
  6
Continuous
 62
     2
100
AcDbText
 10
32.02823616682311
 20
18.04536276407027
 30
0.0
 40
0.375
  1
SECTION CUT "A"
 72
     1
 11
34.23705267432652
 21
18.04536276407027
 31
0.0
100
AcDbText
  0
TEXT
  5
B330
330
17
100
AcDbEntity
  8
0
  6
Continuous
 62
     2
100
AcDbText
 10
47.68621381561525
 20
18.04536276407027
 30
0.0
 40
0.375
  1
SECTION CUT "A"
 72
     1
 11
49.89503032311867
 21
18.04536276407027
 31
0.0
100
AcDbText
  0
TEXT
  5
B331
330
17
100
AcDbEntity
  8
0
  6
Continuous
 62
     2
100
AcDbText
 10
46.55801633948975
 20
17.22877858265969
 30
0.0
 40
0.375
  1
@ MULLION SPLICE JOINT
 72
     1
 11
49.89503032311867
 21
17.22877858265969
 31
0.0
100
AcDbText
  0
TEXT
  5
B332
330
17
100
AcDbEntity
  8
0
  6
Continuous
 62
     7
100
AcDbText
 10
46.8850722423912
 20
16.42545981227992
 30
0.0
 40
0.375
  1
1/4" FRAME - 1/4" INFILL
 72
     1
 11
49.88046787677046
 21
16.42545981227992
 31
0.0
100
AcDbText
  0
POINT
  5
B333
330
17
100
AcDbEntity
  8
0
  6
CENTER
100
AcDbPoint
 10
31.50881962311061
 20
21.35819479101852
 30
0.0
  0
POINT
  5
B334
330
17
100
AcDbEntity
  8
0
  6
CENTER
100
AcDbPoint
 10
48.03882949966837
 20
21.35819479101852
 30
0.0
  0
MTEXT
  5
B335
330
17
100
AcDbEntity
  8
TEXT
100
AcDbMText
 10
1.0
 20
1.999999942131637
 30
0.0
 40
0.375
 41
14.22387531454843
 46
0.0
 71
     1
 72
     5
  1
ENGINEERING CHANGE:  97910-227 (FEBRUARY 2024)\PFILE NAME:  KCDD014 SHEET 11 OF 11.DWG
 73
     1
 44
1.0
101
Embedded Object
 70
     1
 10
1.0
 20
0.0
 30
0.0
 11
1.0
 21
1.999999942131637
 31
0.0
 40
14.22387531454843
 41
0.0
 42
13.59413369713506
 43
1.01944065484311
 71
     2
 72
     1
 44
14.22387531454843
 45
1.25
 73
     0
 74
     0
 46
0.0
  0
INSERT
  5
B336
330
17
100
AcDbEntity
  8
0
100
AcDbBlockReference
  2
Kawneer Logo English
 10
1.0
 20
2.5
 30
0.0
 41
5.337
 42
5.337
 43
5.337
  0
ENDSEC
  0
SECTION
  2
OBJECTS
  0
DICTIONARY
  5
C
330
0
100
AcDbDictionary
281
     1
  3
ACAD_CIP_PREVIOUS_PRODUCT_INFO
350
8402
  3
ACAD_COLOR
350
8057
  3
ACAD_DETAILVIEWSTYLE
350
88FD
  3
ACAD_GROUP
350
D
  3
ACAD_LAYOUT
350
7E3C
  3
ACAD_MATERIAL
350
8056
  3
ACAD_MLEADERSTYLE
350
826D
  3
ACAD_MLINESTYLE
350
1A
  3
ACAD_PLOTSETTINGS
350
7E3D
  3
ACAD_PLOTSTYLENAME
350
7E3A
  3
ACAD_SCALELIST
350
824B
  3
ACAD_SECTIONVIEWSTYLE
350
88FB
  3
ACAD_TABLESTYLE
350
8058
  3
ACAD_VISUALSTYLE
350
823A
  3
ACDB_RECOMPOSE_DATA
350
B344
  3
ACDBVARIABLEDICTIONARY
350
3E
  0
DICTIONARY
  5
82F9
330
8
100
AcDbDictionary
280
     1
281
     1
  0
DICTIONARY
  5
807B
330
2
100
AcDbDictionary
280
     1
281
     1
  3
ACAD_LAYERSTATES
360
807C
  0
DICTIONARY
  5
8286
330
E
100
AcDbDictionary
280
     1
281
     1
  3
ADSK_XREC_LAYER_RECONCILED
360
8287
  0
DICTIONARY
  5
8288
330
273
100
AcDbDictionary
280
     1
281
     1
  3
ADSK_XREC_LAYER_RECONCILED
360
8289
  0
DICTIONARY
  5
828A
330
277
100
AcDbDictionary
280
     1
281
     1
  3
ADSK_XREC_LAYER_RECONCILED
360
828B
  0
DICTIONARY
  5
828C
330
42D
100
AcDbDictionary
280
     1
281
     1
  3
ADSK_XREC_LAYER_RECONCILED
360
828D
  0
DICTIONARY
  5
828E
330
42E
100
AcDbDictionary
280
     1
281
     1
  3
ADSK_XREC_LAYER_RECONCILED
360
828F
  0
DICTIONARY
  5
8290
330
7E37
100
AcDbDictionary
280
     1
281
     1
  3
ADSK_XREC_LAYER_RECONCILED
360
8291
  0
DICTIONARY
  5
874E
330
874D
100
AcDbDictionary
280
     1
281
     1
  0
DICTIONARY
  5
90C3
330
90C2
100
AcDbDictionary
280
     1
281
     1
  0
DICTIONARY
  5
AFB2
330
AFB1
100
AcDbDictionary
280
     1
281
     1
  0
DICTIONARY
  5
AFB4
330
AFB3
100
AcDbDictionary
280
     1
281
     1
  0
DICTIONARY
  5
7F24
330
17
100
AcDbDictionary
280
     1
281
     1
  3
ACAD_LAYOUTSELFREF
360
8052
  3
ACAD_SORTENTS
360
82EF
  0
DICTIONARY
  5
7F22
330
14
100
AcDbDictionary
280
     1
281
     1
  3
ACAD_LAYOUTSELFREF
360
8051
  0
DICTIONARY
  5
891E
330
8813
100
AcDbDictionary
280
     1
281
     1
  3
ACAD_SORTENTS
360
891F
  0
XRECORD
  5
8402
102
{ACAD_REACTORS
330
C
102
}
330
C
100
AcDbXrecord
280
     1
300
ACD
300
2022
300

  0
DICTIONARY
  5
8057
102
{ACAD_REACTORS
330
C
102
}
330
C
100
AcDbDictionary
281
     1
  0
DICTIONARY
  5
88FD
102
{ACAD_REACTORS
330
C
102
}
330
C
100
AcDbDictionary
281
     1
  3
Imperial24
350
88FE
  0
DICTIONARY
  5
D
102
{ACAD_REACTORS
330
C
102
}
330
C
100
AcDbDictionary
281
     1
  0
DICTIONARY
  5
7E3C
102
{ACAD_REACTORS
330
C
102
}
330
C
100
AcDbDictionary
281
     1
  3
Layout1
350
7E3F
  3
Model
350
7E3E
  0
DICTIONARY
  5
8056
102
{ACAD_REACTORS
330
C
102
}
330
C
100
AcDbDictionary
281
     1
  3
ByBlock
350
822A
  3
ByLayer
350
8222
  3
Global
350
8232
  0
DICTIONARY
  5
826D
102
{ACAD_REACTORS
330
C
102
}
330
C
100
AcDbDictionary
281
     1
  3
Standard
350
8309
  0
DICTIONARY
  5
1A
102
{ACAD_REACTORS
330
C
102
}
330
C
100
AcDbDictionary
281
     1
  3
STANDARD
350
1B
  0
DICTIONARY
  5
7E3D
102
{ACAD_REACTORS
330
C
102
}
330
C
100
AcDbDictionary
281
     1
  0
ACDBDICTIONARYWDFLT
  5
7E3A
102
{ACAD_REACTORS
330
C
102
}
330
C
100
AcDbDictionary
281
     1
  3
Normal
350
7E3B
100
AcDbDictionaryWithDefault
340
7E3B
  0
DICTIONARY
  5
824B
102
{ACAD_REACTORS
330
C
102
}
330
C
100
AcDbDictionary
281
     1
  3
A0
350
824C
  3
A1
350
87F5
  3
A2
350
87F6
  3
A3
350
87F7
  3
A4
350
87F8
  3
A5
350
87F9
  3
A6
350
87FA
  3
A7
350
87FB
  3
A8
350
87FC
  3
A9
350
87FD
  3
B0
350
87FE
  3
B1
350
87FF
  3
B2
350
8800
  3
B3
350
8801
  3
B4
350
8802
  3
B5
350
8803
  3
B6
350
8804
  0
DICTIONARY
  5
88FB
102
{ACAD_REACTORS
330
C
102
}
330
C
100
AcDbDictionary
281
     1
  3
Imperial24
350
88FC
  0
DICTIONARY
  5
8058
102
{ACAD_REACTORS
330
C
102
}
330
C
100
AcDbDictionary
281
     1
  3
Standard
350
8059
  0
DICTIONARY
  5
823A
102
{ACAD_REACTORS
330
C
102
}
330
C
100
AcDbDictionary
281
     1
  3
2dWireframe
350
8240
  3
3D Hidden
350
8242
  3
3dWireframe
350
8241
  3
Basic
350
823F
  3
Brighten
350
8246
  3
ColorChange
350
824A
  3
Conceptual
350
8243
  3
Dim
350
8245
  3
EdgeColorOff
350
83B8
  3
Facepattern
350
8249
  3
Flat
350
823B
  3
FlatWithEdges
350
823C
  3
Gouraud
350
823D
  3
GouraudWithEdges
350
823E
  3
Hidden
350
83B0
  3
JitterOff
350
83B6
  3
Linepattern
350
8248
  3
OverhangOff
350
83B7
  3
Realistic
350
8244
  3
Shaded
350
83B5
  3
Shaded with edges
350
83B4
  3
Shades of Gray
350
83B1
  3
Sketchy
350
83B2
  3
Thicken
350
8247
  3
Wireframe
350
83AF
  3
X-Ray
350
83B3
  0
XRECORD
  5
B344
102
{ACAD_REACTORS
330
C
102
}
330
C
100
AcDbXrecord
280
     1
 90
        1
330
8059
  0
DICTIONARY
  5
3E
102
{ACAD_REACTORS
330
C
102
}
330
C
100
AcDbDictionary
281
     1
  3
CANNOSCALE
350
8299
  3
CMLEADERSTYLE
350
8297
  3
CTABLESTYLE
350
8085
  3
CVIEWDETAILSTYLE
350
AE54
  3
CVIEWSECTIONSTYLE
350
AE55
  3
DIMADEC
350
3F
  3
DIMASSOC
350
836A
  3
INDEXCTL
350
8395
  3
LAYEREVAL
350
86EF
  3
LAYERNOTIFY
350
86F0
  3
LIGHTINGUNITS
350
829A
  3
MSLTSCALE
350
8298
  3
PROJECTNAME
350
836B
  3
SORTENTS
350
8394
  0
DICTIONARY
  5
807C
102
{ACAD_REACTORS
330
807B
102
}
330
807B
100
AcDbDictionary
281
     1
  0
XRECORD
  5
8287
102
{ACAD_REACTORS
330
8286
102
}
330
8286
100
AcDbXrecord
280
     1
290
     1
  0
XRECORD
  5
8289
102
{ACAD_REACTORS
330
8288
102
}
330
8288
100
AcDbXrecord
280
     1
290
     1
  0
XRECORD
  5
828B
102
{ACAD_REACTORS
330
828A
102
}
330
828A
100
AcDbXrecord
280
     1
290
     1
  0
XRECORD
  5
828D
102
{ACAD_REACTORS
330
828C
102
}
330
828C
100
AcDbXrecord
280
     1
290
     1
  0
XRECORD
  5
828F
102
{ACAD_REACTORS
330
828E
102
}
330
828E
100
AcDbXrecord
280
     1
290
     1
  0
XRECORD
  5
8291
102
{ACAD_REACTORS
330
8290
102
}
330
8290
100
AcDbXrecord
280
     1
290
     1
  0
XRECORD
  5
8052
102
{ACAD_REACTORS
330
7F24
102
}
330
7F24
100
AcDbXrecord
280
     1
340
17
  0
SORTENTSTABLE
  5
82EF
102
{ACAD_REACTORS
330
7F24
102
}
330
7F24
100
AcDbSortentsTable
330
17
  0
XRECORD
  5
8051
102
{ACAD_REACTORS
330
7F22
102
}
330
7F22
100
AcDbXrecord
280
     1
340
14
  0
SORTENTSTABLE
  5
891F
102
{ACAD_REACTORS
330
891E
102
}
330
891E
100
AcDbSortentsTable
330
8813
  0
ACDBDETAILVIEWSTYLE
  5
88FE
102
{ACAD_REACTORS
330
88FD
102
}
330
88FD
100
AcDbModelDocViewStyle
 70
     0
  3
Imperial24
290
     0
300
Imperial24
 90
        0
100
AcDbDetailViewStyle
 70
     0
 71
     0
 90
        3
 71
     1
340
F
 62
   256
 40
0.24
340
0
 62
   256
 40
0.24
300

 40
0.36
280
     3
 71
     2
340
13
 90
       25
 62
   256
 71
     3
340
F
 62
   256
 40
0.24
 90
        1
 40
0.75
 90
        1
300
%<\AcVar ViewType \f "%tc1">% %<\AcVar ViewDetailId>%\PSCALE %<\AcVar ViewScale \f "%sn">%
 71
     4
340
13
 90
       25
 62
   256
340
13
 90
       25
 62
   256
280
     0
  0
LAYOUT
  5
7E3F
102
{ACAD_REACTORS
330
7E3C
102
}
330
7E3C
100
AcDbPlotSettings
  1

  2
\\NOAKCI-SRV7\Marketing Communications - HP4550hdn
  4

  6

 40
0.0
 41
0.0
 42
0.0
 43
0.0
 44
0.0
 45
0.0
 46
0.0
 47
0.0
 48
0.0
 49
0.0
140
0.0
141
0.0
142
1.0
143
1.0
 70
   688
 72
     0
 73
     0
 74
     5
  7
monochrome2.ctb
 75
    16
147
1.0
 76
     0
 77
     2
 78
   300
148
0.0
149
0.0
100
AcDbLayout
  1
Layout1
 70
     1
 71
     1
 10
0.0
 20
0.0
 11
12.0
 21
9.0
 12
0.0
 22
0.0
 32
0.0
 14
1.000000000000000E+20
 24
1.000000000000000E+20
 34
1.000000000000000E+20
 15
-1.000000000000000E+20
 25
-1.000000000000000E+20
 35
-1.000000000000000E+20
146
0.0
 13
0.0
 23
0.0
 33
0.0
 16
1.0
 26
0.0
 36
0.0
 17
0.0
 27
1.0
 37
0.0
 76
     0
330
14
  0
LAYOUT
  5
7E3E
102
{ACAD_REACTORS
330
7E3C
102
}
330
7E3C
100
AcDbPlotSettings
  1

  2
\\NOAKCI-SRV7\Marketing Communications - HP 9000n
  4
11x17
  6

 40
4.233333110809326
 41
4.233341693878173
 42
4.23333740234375
 43
4.23333740234375
 44
279.3999938964844
 45
431.7999877929687
 46
0.0
 47
0.0
 48
0.0
 49
0.0
140
0.0
141
0.0
142
1.0
143
5.874116801055904
 70
 11952
 72
     0
 73
     1
 74
     1
  7
monochrome2.ctb
 75
     0
147
0.1702383581852245
 76
     0
 77
     2
 78
   300
148
0.0758779244154141
149
0.0481525267918812
100
AcDbLayout
  1
Model
 70
     1
 71
     0
 10
0.0
 20
0.0
 11
12.0
 21
9.0
 12
0.0
 22
0.0
 32
0.0
 14
0.0
 24
0.0
 34
0.0
 15
0.0
 25
0.0
 35
0.0
146
0.0
 13
0.0
 23
0.0
 33
0.0
 16
1.0
 26
0.0
 36
0.0
 17
0.0
 27
1.0
 37
0.0
 76
     0
330
17
331
8363
  0
MATERIAL
  5
822A
102
{ACAD_XDICTIONARY
360
822B
102
}
102
{ACAD_REACTORS
330
8056
102
}
330
8056
100
AcDbMaterial
  1
ByBlock
 72
     0
 43
0.0208333333333333
 43
0.0
 43
0.0
 43
0.0
 43
0.0
 43
0.0208333333333333
 43
0.0
 43
0.0
 43
0.0
 43
0.0
 43
1.0
 43
0.0
 43
0.0
 43
0.0
 43
0.0
 43
1.0
 77
     0
 47
0.0208333333333333
 47
0.0
 47
0.0
 47
0.0
 47
0.0
 47
0.0208333333333333
 47
0.0
 47
0.0
 47
0.0
 47
0.0
 47
1.0
 47
0.0
 47
0.0
 47
0.0
 47
0.0
 47
1.0
171
     0
 49
0.0208333333333333
 49
0.0
 49
0.0
 49
0.0
 49
0.0
 49
0.0208333333333333
 49
0.0
 49
0.0
 49
0.0
 49
0.0
 49
1.0
 49
0.0
 49
0.0
 49
0.0
 49
0.0
 49
1.0
175
     0
142
0.0208333333333333
142
0.0
142
0.0
142
0.0
142
0.0
142
0.0208333333333333
142
0.0
142
0.0
142
0.0
142
0.0
142
1.0
142
0.0
142
0.0
142
0.0
142
0.0
142
1.0
179
     0
144
0.0208333333333333
144
0.0
144
0.0
144
0.0
144
0.0
144
0.0208333333333333
144
0.0
144
0.0
144
0.0
144
0.0
144
1.0
144
0.0
144
0.0
144
0.0
144
0.0
144
1.0
147
0.0208333333333333
147
0.0
147
0.0
147
0.0
147
0.0
147
0.0208333333333333
147
0.0
147
0.0
147
0.0
147
0.0
147
1.0
147
0.0
147
0.0
147
0.0
147
0.0
147
1.0
  0
MATERIAL
  5
8222
102
{ACAD_XDICTIONARY
360
8223
102
}
102
{ACAD_REACTORS
330
8056
102
}
330
8056
100
AcDbMaterial
  1
ByLayer
 72
     0
 43
0.0208333333333333
 43
0.0
 43
0.0
 43
0.0
 43
0.0
 43
0.0208333333333333
 43
0.0
 43
0.0
 43
0.0
 43
0.0
 43
1.0
 43
0.0
 43
0.0
 43
0.0
 43
0.0
 43
1.0
 77
     0
 47
0.0208333333333333
 47
0.0
 47
0.0
 47
0.0
 47
0.0
 47
0.0208333333333333
 47
0.0
 47
0.0
 47
0.0
 47
0.0
 47
1.0
 47
0.0
 47
0.0
 47
0.0
 47
0.0
 47
1.0
171
     0
 49
0.0208333333333333
 49
0.0
 49
0.0
 49
0.0
 49
0.0
 49
0.0208333333333333
 49
0.0
 49
0.0
 49
0.0
 49
0.0
 49
1.0
 49
0.0
 49
0.0
 49
0.0
 49
0.0
 49
1.0
175
     0
142
0.0208333333333333
142
0.0
142
0.0
142
0.0
142
0.0
142
0.0208333333333333
142
0.0
142
0.0
142
0.0
142
0.0
142
1.0
142
0.0
142
0.0
142
0.0
142
0.0
142
1.0
179
     0
144
0.0208333333333333
144
0.0
144
0.0
144
0.0
144
0.0
144
0.0208333333333333
144
0.0
144
0.0
144
0.0
144
0.0
144
1.0
144
0.0
144
0.0
144
0.0
144
0.0
144
1.0
147
0.0208333333333333
147
0.0
147
0.0
147
0.0
147
0.0
147
0.0208333333333333
147
0.0
147
0.0
147
0.0
147
0.0
147
1.0
147
0.0
147
0.0
147
0.0
147
0.0
147
1.0
  0
MATERIAL
  5
8232
102
{ACAD_XDICTIONARY
360
8233
102
}
102
{ACAD_REACTORS
330
8056
102
}
330
8056
100
AcDbMaterial
  1
Global
 72
     0
 43
0.0208333333333333
 43
0.0
 43
0.0
 43
0.0
 43
0.0
 43
0.0208333333333333
 43
0.0
 43
0.0
 43
0.0
 43
0.0
 43
1.0
 43
0.0
 43
0.0
 43
0.0
 43
0.0
 43
1.0
 77
     0
 47
0.0208333333333333
 47
0.0
 47
0.0
 47
0.0
 47
0.0
 47
0.0208333333333333
 47
0.0
 47
0.0
 47
0.0
 47
0.0
 47
1.0
 47
0.0
 47
0.0
 47
0.0
 47
0.0
 47
1.0
171
     0
 49
0.0208333333333333
 49
0.0
 49
0.0
 49
0.0
 49
0.0
 49
0.0208333333333333
 49
0.0
 49
0.0
 49
0.0
 49
0.0
 49
1.0
 49
0.0
 49
0.0
 49
0.0
 49
0.0
 49
1.0
175
     0
142
0.0208333333333333
142
0.0
142
0.0
142
0.0
142
0.0
142
0.0208333333333333
142
0.0
142
0.0
142
0.0
142
0.0
142
1.0
142
0.0
142
0.0
142
0.0
142
0.0
142
1.0
179
     0
144
0.0208333333333333
144
0.0
144
0.0
144
0.0
144
0.0
144
0.0208333333333333
144
0.0
144
0.0
144
0.0
144
0.0
144
1.0
144
0.0
144
0.0
144
0.0
144
0.0
144
1.0
147
0.0208333333333333
147
0.0
147
0.0
147
0.0
147
0.0
147
0.0208333333333333
147
0.0
147
0.0
147
0.0
147
0.0
147
1.0
147
0.0
147
0.0
147
0.0
147
0.0
147
1.0
  0
MLEADERSTYLE
  5
8309
102
{ACAD_REACTORS
330
826D
102
}
330
826D
100
AcDbMLeaderStyle
179
     2
170
     2
171
     1
172
     0
 90
        2
 40
0.0
 41
0.0
173
     1
 91
-1056964608
340
11
 92
       -2
290
     1
 42
0.09
291
     1
 43
0.36
  3
Standard
 44
0.18
300

342
F
174
     1
178
     6
175
     1
176
     0
 93
-1056964608
 45
0.18
292
     0
297
     0
 46
0.18
 94
-1056964608
 47
1.0
 49
1.0
140
1.0
293
     1
141
0.0
294
     1
177
     0
142
1.0
295
     0
296
     0
143
0.125
271
     0
272
     9
273
     9
298
     0
1001
ACAD
1000
AcRTDxfName
1000
MLEADERSTYLE
  0
MLINESTYLE
  5
1B
102
{ACAD_REACTORS
330
1A
102
}
330
1A
100
AcDbMlineStyle
  2
STANDARD
 70
     0
  3

 62
   256
 51
90.0
 52
90.0
 71
     2
 49
0.5
 62
   256
  6
BYLAYER
 49
-0.5
 62
   256
  6
BYLAYER
  0
ACDBPLACEHOLDER
  5
7E3B
102
{ACAD_REACTORS
330
7E3A
102
}
330
7E3A
  0
SCALE
  5
824C
102
{ACAD_REACTORS
330
824B
102
}
330
824B
100
AcDbScale
 70
     0
300
1:1
140
1.0
141
1.0
290
     1
1001
ACAD
1000
AcRTDxfName
1000
SCALE
  0
SCALE
  5
87F5
102
{ACAD_REACTORS
330
824B
102
}
330
824B
100
AcDbScale
 70
     0
300
1/128" = 1'-0"
140
0.0078125
141
12.0
290
     0
  0
SCALE
  5
87F6
102
{ACAD_REACTORS
330
824B
102
}
330
824B
100
AcDbScale
 70
     0
300
1/64" = 1'-0"
140
0.015625
141
12.0
290
     0
  0
SCALE
  5
87F7
102
{ACAD_REACTORS
330
824B
102
}
330
824B
100
AcDbScale
 70
     0
300
1/32" = 1'-0"
140
0.03125
141
12.0
290
     0
  0
SCALE
  5
87F8
102
{ACAD_REACTORS
330
824B
102
}
330
824B
100
AcDbScale
 70
     0
300
1/16" = 1'-0"
140
0.0625
141
12.0
290
     0
  0
SCALE
  5
87F9
102
{ACAD_REACTORS
330
824B
102
}
330
824B
100
AcDbScale
 70
     0
300
3/32" = 1'-0"
140
0.09375
141
12.0
290
     0
  0
SCALE
  5
87FA
102
{ACAD_REACTORS
330
824B
102
}
330
824B
100
AcDbScale
 70
     0
300
1/8" = 1'-0"
140
0.125
141
12.0
290
     0
  0
SCALE
  5
87FB
102
{ACAD_REACTORS
330
824B
102
}
330
824B
100
AcDbScale
 70
     0
300
3/16" = 1'-0"
140
0.1875
141
12.0
290
     0
  0
SCALE
  5
87FC
102
{ACAD_REACTORS
330
824B
102
}
330
824B
100
AcDbScale
 70
     0
300
1/4" = 1'-0"
140
0.25
141
12.0
290
     0
  0
SCALE
  5
87FD
102
{ACAD_REACTORS
330
824B
102
}
330
824B
100
AcDbScale
 70
     0
300
3/8" = 1'-0"
140
0.375
141
12.0
290
     0
  0
SCALE
  5
87FE
102
{ACAD_REACTORS
330
824B
102
}
330
824B
100
AcDbScale
 70
     0
300
1/2" = 1'-0"
140
0.5
141
12.0
290
     0
  0
SCALE
  5
87FF
102
{ACAD_REACTORS
330
824B
102
}
330
824B
100
AcDbScale
 70
     0
300
3/4" = 1'-0"
140
0.75
141
12.0
290
     0
  0
SCALE
  5
8800
102
{ACAD_REACTORS
330
824B
102
}
330
824B
100
AcDbScale
 70
     0
300
1" = 1'-0"
140
1.0
141
12.0
290
     0
  0
SCALE
  5
8801
102
{ACAD_REACTORS
330
824B
102
}
330
824B
100
AcDbScale
 70
     0
300
1-1/2" = 1'-0"
140
1.5
141
12.0
290
     0
  0
SCALE
  5
8802
102
{ACAD_REACTORS
330
824B
102
}
330
824B
100
AcDbScale
 70
     0
300
3" = 1'-0"
140
3.0
141
12.0
290
     0
  0
SCALE
  5
8803
102
{ACAD_REACTORS
330
824B
102
}
330
824B
100
AcDbScale
 70
     0
300
6" = 1'-0"
140
6.0
141
12.0
290
     0
  0
SCALE
  5
8804
102
{ACAD_REACTORS
330
824B
102
}
330
824B
100
AcDbScale
 70
     0
300
1'-0" = 1'-0"
140
12.0
141
12.0
290
     0
  0
ACDBSECTIONVIEWSTYLE
  5
88FC
102
{ACAD_REACTORS
330
88FB
102
}
330
88FB
100
AcDbModelDocViewStyle
 70
     0
  3
Imperial24
290
     0
300
Imperial24
 90
        0
100
AcDbSectionViewStyle
 70
     0
 71
     0
 90
       78
 71
     1
340
F
 62
   256
 40
0.24
340
0
340
0
 62
   256
 40
0.24
300
I, O, Q, S, X, Z
 40
0.48
 90
        3
 40
0.18
 90
        1
 71
     2
340
13
 90
       25
 62
   256
340
13
 90
       50
 62
   256
 40
0.24
 40
0.0
 40
0.24
 71
     3
340
F
 62
   256
 40
0.24
 90
        1
 40
0.75
 90
        1
300
%<\AcVar ViewType \f "%tc1">% %<\AcVar ViewSectionStartId>%-%<\AcVar ViewSectionEndId>%\PSCALE %<\AcVar ViewScale \f "%sn">%
 71
     4
 62
   256
 62
   257
300
ANSI31
 40
1.0
 90
        0
290
     0
290
     0
 90
        6
 40
0.0
 40
1.570796326794896
 40
0.2617993877991494
 40
1.308996938995747
 40
-0.2617993877991494
 40
1.832595714594046
  0
TABLESTYLE
  5
8059
102
{ACAD_XDICTIONARY
360
8294
102
}
102
{ACAD_REACTORS
330
8058
102
}
330
8058
100
AcDbTableStyle
280
     0
  3
Standard
 70
     0
 71
     0
 40
0.06
 41
0.06
280
     0
281
     0
  7
STANDARD
140
0.18
170
     2
 62
     0
 63
     7
283
     0
 90
        4
 91
        0
  1

274
    -2
284
     1
 64
     0
275
    -2
285
     1
 65
     0
276
    -2
286
     1
 66
     0
277
    -2
287
     1
 67
     0
278
    -2
288
     1
 68
     0
279
    -2
289
     1
 69
     0
  7
STANDARD
140
0.25
170
     5
 62
     0
 63
     7
283
     0
 90
        4
 91
        0
  1

274
    -2
284
     1
 64
     0
275
    -2
285
     1
 65
     0
276
    -2
286
     1
 66
     0
277
    -2
287
     1
 67
     0
278
    -2
288
     1
 68
     0
279
    -2
289
     1
 69
     0
  7
STANDARD
140
0.18
170
     5
 62
     0
 63
     7
283
     0
 90
        4
 91
        0
  1

274
    -2
284
     1
 64
     0
275
    -2
285
     1
 65
     0
276
    -2
286
     1
 66
     0
277
    -2
287
     1
 67
     0
278
    -2
288
     1
 68
     0
279
    -2
289
     1
 69
     0
  0
VISUALSTYLE
  5
8240
102
{ACAD_REACTORS
330
823A
102
}
330
823A
100
AcDbVisualStyle
  2
2dWireframe
 70
     4
177
     3
291
     0
 70
    58
 90
        0
176
     1
 90
        2
176
     1
 90
        0
176
     1
 90
        0
176
     1
 40
0.6
176
     1
 40
30.0
176
     1
 62
     7
176
     1
 90
        1
176
     1
 90
        4
176
     1
 62
     7
176
     1
 62
   257
176
     1
 90
        1
176
     1
 90
        1
176
     1
 40
1.0
176
     1
 90
        0
176
     1
 62
   257
176
     1
 40
1.0
176
     1
 90
        1
176
     1
 90
        6
176
     1
 90
        2
176
     1
 62
     7
176
     1
 90
        5
176
     1
 90
        0
176
     1
 90
        0
176
     1
290
     0
176
     1
 90
        1
176
     1
 40
0.0
176
     1
 90
        0
176
     1
290
     1
176
     1
290
     1
176
     1
290
     0
176
     1
290
     0
176
     1
290
     0
176
     1
290
     0
176
     1
290
     0
176
     1
290
     0
176
     1
290
     0
176
     1
 90
       50
176
     1
 40
0.0
176
     1
 40
1.0
176
     1
 90
        0
176
     1
 62
    18
420
        0
176
     1
 90
       50
176
     1
 90
        3
176
     1
 62
     5
420
      255
176
     1
290
     0
176
     1
 90
       50
176
     1
 90
       50
176
     1
 90
       50
176
     1
290
     0
176
     1
 90
       50
176
     1
 62
   256
176
     0
 40
1.0
176
     0
 90
        2
176
     1
  1
strokes_ogs.tif
176
     1
290
     0
176
     1
 40
1.0
176
     1
 40
1.0
176
     1
1001
ACAD
1000
AcRTDxfName
1000
VISUALSTYLE
  0
VISUALSTYLE
  5
8242
102
{ACAD_REACTORS
330
823A
102
}
330
823A
100
AcDbVisualStyle
  2
3D Hidden
 70
     6
177
     3
291
     0
 70
    58
 90
        1
176
     1
 90
        2
176
     1
 90
        2
176
     1
 90
        0
176
     1
 40
0.6
176
     1
 40
30.0
176
     1
 62
     7
176
     1
 90
        2
176
     1
 90
        2
176
     1
 62
     7
176
     1
 62
   257
176
     1
 90
        2
176
     1
 90
        1
176
     1
 40
40.0
176
     1
 90
        0
176
     1
 62
   257
176
     1
 40
1.0
176
     1
 90
        1
176
     1
 90
        6
176
     1
 90
        2
176
     1
 62
     7
176
     1
 90
        3
176
     1
 90
        0
176
     1
 90
        0
176
     1
290
     0
176
     1
 90
        1
176
     1
 40
0.0
176
     1
 90
        0
176
     1
290
     0
176
     1
290
     1
176
     1
290
     1
176
     1
290
     0
176
     1
290
     0
176
     1
290
     0
176
     1
290
     0
176
     1
290
     0
176
     1
290
     0
176
     1
 90
       50
176
     1
 40
0.0
176
     1
 40
1.0
176
     1
 90
        0
176
     1
 62
    18
420
        0
176
     1
 90
       50
176
     1
 90
        3
176
     1
 62
     5
420
      255
176
     1
290
     0
176
     1
 90
       50
176
     1
 90
       50
176
     1
 90
       50
176
     1
290
     0
176
     1
 90
       50
176
     1
 62
   256
176
     0
 40
1.0
176
     0
 90
        2
176
     1
  1
strokes_ogs.tif
176
     1
290
     0
176
     1
 40
1.0
176
     1
 40
1.0
176
     1
1001
ACAD
1000
AcRTDxfName
1000
VISUALSTYLE
  0
VISUALSTYLE
  5
8241
102
{ACAD_REACTORS
330
823A
102
}
330
823A
100
AcDbVisualStyle
  2
3dWireframe
 70
     5
177
     3
291
     0
 70
    58
 90
        0
176
     1
 90
        2
176
     1
 90
        0
176
     1
 90
        0
176
     1
 40
0.6
176
     1
 40
30.0
176
     1
 62
     7
176
     1
 90
        1
176
     1
 90
        4
176
     1
 62
     7
176
     1
 62
   257
176
     1
 90
        1
176
     1
 90
        1
176
     1
 40
1.0
176
     1
 90
        0
176
     1
 62
   257
176
     1
 40
1.0
176
     1
 90
        1
176
     1
 90
        6
176
     1
 90
        2
176
     1
 62
     7
176
     1
 90
        5
176
     1
 90
        0
176
     1
 90
        0
176
     1
290
     0
176
     1
 90
        1
176
     1
 40
0.0
176
     1
 90
        0
176
     1
290
     0
176
     1
290
     1
176
     1
290
     1
176
     1
290
     0
176
     1
290
     0
176
     1
290
     0
176
     1
290
     0
176
     1
290
     0
176
     1
290
     0
176
     1
 90
       50
176
     1
 40
0.0
176
     1
 40
1.0
176
     1
 90
        0
176
     1
 62
    18
420
        0
176
     1
 90
       50
176
     1
 90
        3
176
     1
 62
     5
420
      255
176
     1
290
     0
176
     1
 90
       50
176
     1
 90
       50
176
     1
 90
       50
176
     1
290
     0
176
     1
 90
       50
176
     1
 62
   256
176
     0
 40
1.0
176
     0
 90
        2
176
     1
  1
strokes_ogs.tif
176
     1
290
     0
176
     1
 40
1.0
176
     1
 40
1.0
176
     1
1001
ACAD
1000
AcRTDxfName
1000
VISUALSTYLE
  0
VISUALSTYLE
  5
823F
102
{ACAD_REACTORS
330
823A
102
}
330
823A
100
AcDbVisualStyle
  2
Basic
 70
     7
177
     3
291
     1
 70
    58
 90
        1
176
     1
 90
        0
176
     1
 90
        1
176
     1
 90
        0
176
     1
 40
0.6
176
     1
 40
30.0
176
     1
 62
     7
176
     1
 90
        0
176
     1
 90
        4
176
     1
 62
     7
176
     1
 62
   257
176
     1
 90
        1
176
     1
 90
        1
176
     1
 40
1.0
176
     1
 90
        8
176
     1
 62
     7
176
     1
 40
1.0
176
     1
 90
        1
176
     1
 90
        6
176
     1
 90
        2
176
     1
 62
     7
176
     1
 90
        5
176
     1
 90
        0
176
     1
 90
        0
176
     1
290
     0
176
     1
 90
        1
176
     1
 40
0.0
176
     1
 90
        0
176
     1
290
     0
176
     1
290
     1
176
     1
290
     1
176
     1
290
     0
176
     1
290
     0
176
     1
290
     0
176
     1
290
     0
176
     1
290
     0
176
     1
290
     0
176
     1
 90
       50
176
     1
 40
0.0
176
     1
 40
1.0
176
     1
 90
        0
176
     1
 62
    18
420
        0
176
     1
 90
       50
176
     1
 90
        3
176
     1
 62
     5
420
      255
176
     1
290
     0
176
     1
 90
       50
176
     1
 90
       50
176
     1
 90
       50
176
     1
290
     0
176
     1
 90
       50
176
     1
 62
   256
176
     0
 40
1.0
176
     0
 90
        2
176
     1
  1
strokes_ogs.tif
176
     1
290
     0
176
     1
 40
1.0
176
     1
 40
1.0
176
     1
1001
ACAD
1000
AcRTDxfName
1000
VISUALSTYLE
  0
VISUALSTYLE
  5
8246
102
{ACAD_REACTORS
330
823A
102
}
330
823A
100
AcDbVisualStyle
  2
Brighten
 70
    12
177
     3
291
     1
 70
    58
 90
        2
176
     1
 90
        2
176
     1
 90
        0
176
     1
 90
        0
176
     1
 40
0.6
176
     1
 40
30.0
176
     1
 62
     7
176
     1
 90
        1
176
     1
 90
        4
176
     1
 62
     7
176
     1
 62
   257
176
     1
 90
        1
176
     1
 90
        1
176
     1
 40
1.0
176
     1
 90
        8
176
     1
 62
     7
176
     1
 40
1.0
176
     1
 90
        1
176
     1
 90
        6
176
     1
 90
        2
176
     1
 62
     7
176
     1
 90
        5
176
     1
 90
        0
176
     1
 90
        0
176
     1
290
     0
176
     1
 90
        1
176
     1
 40
50.0
176
     1
 90
        0
176
     1
290
     0
176
     1
290
     1
176
     1
290
     1
176
     1
290
     0
176
     1
290
     0
176
     1
290
     0
176
     1
290
     0
176
     1
290
     0
176
     1
290
     0
176
     1
 90
       50
176
     1
 40
0.0
176
     1
 40
1.0
176
     1
 90
        0
176
     1
 62
    18
420
        0
176
     1
 90
       50
176
     1
 90
        3
176
     1
 62
     5
420
      255
176
     1
290
     0
176
     1
 90
       50
176
     1
 90
       50
176
     1
 90
       50
176
     1
290
     0
176
     1
 90
       50
176
     1
 62
   256
176
     0
 40
1.0
176
     0
 90
        2
176
     1
  1
strokes_ogs.tif
176
     1
290
     0
176
     1
 40
1.0
176
     1
 40
1.0
176
     1
1001
ACAD
1000
AcRTDxfName
1000
VISUALSTYLE
  0
VISUALSTYLE
  5
824A
102
{ACAD_REACTORS
330
823A
102
}
330
823A
100
AcDbVisualStyle
  2
ColorChange
 70
    16
177
     3
291
     1
 70
    58
 90
        2
176
     1
 90
        2
176
     1
 90
        3
176
     1
 90
        0
176
     1
 40
0.6
176
     1
 40
30.0
176
     1
 62
     8
176
     1
 90
        1
176
     1
 90
        4
176
     1
 62
     7
176
     1
 62
   257
176
     1
 90
        1
176
     1
 90
        1
176
     1
 40
1.0
176
     1
 90
        8
176
     1
 62
     8
176
     1
 40
1.0
176
     1
 90
        1
176
     1
 90
        6
176
     1
 90
        2
176
     1
 62
     7
176
     1
 90
        5
176
     1
 90
        0
176
     1
 90
        0
176
     1
290
     0
176
     1
 90
        1
176
     1
 40
0.0
176
     1
 90
        0
176
     1
290
     0
176
     1
290
     1
176
     1
290
     1
176
     1
290
     0
176
     1
290
     0
176
     1
290
     0
176
     1
290
     0
176
     1
290
     0
176
     1
290
     0
176
     1
 90
       50
176
     1
 40
0.0
176
     1
 40
1.0
176
     1
 90
        0
176
     1
 62
    18
420
        0
176
     1
 90
       50
176
     1
 90
        3
176
     1
 62
     5
420
      255
176
     1
290
     0
176
     1
 90
       50
176
     1
 90
       50
176
     1
 90
       50
176
     1
290
     0
176
     1
 90
       50
176
     1
 62
   256
176
     0
 40
1.0
176
     0
 90
        2
176
     1
  1
strokes_ogs.tif
176
     1
290
     0
176
     1
 40
1.0
176
     1
 40
1.0
176
     1
1001
ACAD
1000
AcRTDxfName
1000
VISUALSTYLE
  0
VISUALSTYLE
  5
8243
102
{ACAD_REACTORS
330
823A
102
}
330
823A
100
AcDbVisualStyle
  2
Conceptual
 70
     9
177
     3
291
     0
 70
    58
 90
        3
176
     1
 90
        2
176
     1
 90
        0
176
     1
 90
        0
176
     1
 40
0.6
176
     1
 40
30.0
176
     1
 62
     7
176
     1
 90
        2
176
     1
 90
        2
176
     1
 62
     7
176
     1
 62
   257
176
     1
 90
        1
176
     1
 90
        1
176
     1
 40
40.0
176
     1
 90
        8
176
     1
 62
     7
176
     1
 40
1.0
176
     1
 90
        1
176
     1
 90
        6
176
     1
 90
        2
176
     1
 62
     7
176
     1
 90
        3
176
     1
 90
        0
176
     1
 90
        0
176
     1
290
     0
176
     1
 90
        1
176
     1
 40
0.0
176
     1
 90
        0
176
     1
290
     0
176
     1
290
     1
176
     1
290
     1
176
     1
290
     0
176
     1
290
     0
176
     1
290
     0
176
     1
290
     0
176
     1
290
     0
176
     1
290
     0
176
     1
 90
       50
176
     1
 40
0.0
176
     1
 40
1.0
176
     1
 90
        0
176
     1
 62
    18
420
        0
176
     1
 90
       50
176
     1
 90
        3
176
     1
 62
     5
420
      255
176
     1
290
     0
176
     1
 90
       50
176
     1
 90
       50
176
     1
 90
       50
176
     1
290
     0
176
     1
 90
       50
176
     1
 62
   256
176
     0
 40
1.0
176
     0
 90
        2
176
     1
  1
strokes_ogs.tif
176
     1
290
     0
176
     1
 40
1.0
176
     1
 40
1.0
176
     1
1001
ACAD
1000
AcRTDxfName
1000
VISUALSTYLE
  0
VISUALSTYLE
  5
8245
102
{ACAD_REACTORS
330
823A
102
}
330
823A
100
AcDbVisualStyle
  2
Dim
 70
    11
177
     3
291
     1
 70
    58
 90
        2
176
     1
 90
        2
176
     1
 90
        0
176
     1
 90
        0
176
     1
 40
0.6
176
     1
 40
30.0
176
     1
 62
     7
176
     1
 90
        1
176
     1
 90
        4
176
     1
 62
     7
176
     1
 62
   257
176
     1
 90
        1
176
     1
 90
        1
176
     1
 40
1.0
176
     1
 90
        8
176
     1
 62
     7
176
     1
 40
1.0
176
     1
 90
        1
176
     1
 90
        6
176
     1
 90
        2
176
     1
 62
     7
176
     1
 90
        5
176
     1
 90
        0
176
     1
 90
        0
176
     1
290
     0
176
     1
 90
        1
176
     1
 40
-50.0
176
     1
 90
        0
176
     1
290
     0
176
     1
290
     1
176
     1
290
     1
176
     1
290
     0
176
     1
290
     0
176
     1
290
     0
176
     1
290
     0
176
     1
290
     0
176
     1
290
     0
176
     1
 90
       50
176
     1
 40
0.0
176
     1
 40
1.0
176
     1
 90
        0
176
     1
 62
    18
420
        0
176
     1
 90
       50
176
     1
 90
        3
176
     1
 62
     5
420
      255
176
     1
290
     0
176
     1
 90
       50
176
     1
 90
       50
176
     1
 90
       50
176
     1
290
     0
176
     1
 90
       50
176
     1
 62
   256
176
     0
 40
1.0
176
     0
 90
        2
176
     1
  1
strokes_ogs.tif
176
     1
290
     0
176
     1
 40
1.0
176
     1
 40
1.0
176
     1
1001
ACAD
1000
AcRTDxfName
1000
VISUALSTYLE
  0
VISUALSTYLE
  5
83B8
102
{ACAD_REACTORS
330
823A
102
}
330
823A
100
AcDbVisualStyle
  2
EdgeColorOff
 70
    22
177
     3
291
     1
 70
    58
 90
        2
176
     0
 90
        2
176
     0
 90
        0
176
     0
 90
        0
176
     0
 40
0.6
176
     0
 40
30.0
176
     0
 62
     7
176
     0
 90
        1
176
     0
 90
        4
176
     0
 62
     7
176
     0
 62
   257
176
     0
 90
        1
176
     0
 90
        1
176
     0
 40
1.0
176
     0
 90
        8
176
     2
 62
     7
176
     0
 40
1.0
176
     0
 90
        1
176
     0
 90
        6
176
     0
 90
        2
176
     0
 62
     7
176
     0
 90
        5
176
     0
 90
        0
176
     0
 90
        0
176
     0
290
     0
176
     0
 90
        1
176
     0
 40
0.0
176
     0
 90
        0
176
     0
290
     0
176
     1
290
     1
176
     1
290
     1
176
     1
290
     0
176
     1
290
     0
176
     1
290
     0
176
     1
290
     0
176
     1
290
     0
176
     1
290
     0
176
     1
 90
       50
176
     1
 40
0.0
176
     1
 40
1.0
176
     1
 90
        0
176
     1
 62
    18
420
        0
176
     1
 90
       50
176
     1
 90
        3
176
     1
 62
     5
420
      255
176
     1
290
     0
176
     1
 90
       50
176
     1
 90
       50
176
     1
 90
       50
176
     1
290
     0
176
     1
 90
       50
176
     1
 62
   256
176
     0
 40
1.0
176
     0
 90
        2
176
     1
  1
strokes_ogs.tif
176
     1
290
     0
176
     1
 40
1.0
176
     1
 40
1.0
176
     1
  0
VISUALSTYLE
  5
8249
102
{ACAD_REACTORS
330
823A
102
}
330
823A
100
AcDbVisualStyle
  2
Facepattern
 70
    15
177
     3
291
     1
 70
    58
 90
        2
176
     1
 90
        2
176
     1
 90
        0
176
     1
 90
        0
176
     1
 40
0.6
176
     1
 40
30.0
176
     1
 62
     7
176
     1
 90
        1
176
     1
 90
        4
176
     1
 62
     7
176
     1
 62
   257
176
     1
 90
        1
176
     1
 90
        1
176
     1
 40
1.0
176
     1
 90
        8
176
     1
 62
     7
176
     1
 40
1.0
176
     1
 90
        1
176
     1
 90
        6
176
     1
 90
        2
176
     1
 62
     7
176
     1
 90
        5
176
     1
 90
        0
176
     1
 90
        0
176
     1
290
     0
176
     1
 90
        1
176
     1
 40
0.0
176
     1
 90
        0
176
     1
290
     0
176
     1
290
     1
176
     1
290
     1
176
     1
290
     0
176
     1
290
     0
176
     1
290
     0
176
     1
290
     0
176
     1
290
     0
176
     1
290
     0
176
     1
 90
       50
176
     1
 40
0.0
176
     1
 40
1.0
176
     1
 90
        0
176
     1
 62
    18
420
        0
176
     1
 90
       50
176
     1
 90
        3
176
     1
 62
     5
420
      255
176
     1
290
     0
176
     1
 90
       50
176
     1
 90
       50
176
     1
 90
       50
176
     1
290
     0
176
     1
 90
       50
176
     1
 62
   256
176
     0
 40
1.0
176
     0
 90
        2
176
     1
  1
strokes_ogs.tif
176
     1
290
     0
176
     1
 40
1.0
176
     1
 40
1.0
176
     1
1001
ACAD
1000
AcRTDxfName
1000
VISUALSTYLE
  0
VISUALSTYLE
  5
823B
102
{ACAD_REACTORS
330
823A
102
}
330
823A
100
AcDbVisualStyle
  2
Flat
 70
     0
177
     3
291
     1
 70
    58
 90
        2
176
     1
 90
        1
176
     1
 90
        1
176
     1
 90
        2
176
     1
 40
0.6
176
     1
 40
30.0
176
     1
 62
     7
176
     1
 90
        0
176
     1
 90
        4
176
     1
 62
     7
176
     1
 62
   257
176
     1
 90
        1
176
     1
 90
        1
176
     1
 40
1.0
176
     1
 90
        8
176
     1
 62
     7
176
     1
 40
1.0
176
     1
 90
        1
176
     1
 90
        6
176
     1
 90
        2
176
     1
 62
     7
176
     1
 90
        5
176
     1
 90
        0
176
     1
 90
        0
176
     1
290
     0
176
     1
 90
       13
176
     1
 40
0.0
176
     1
 90
        0
176
     1
290
     0
176
     1
290
     1
176
     1
290
     1
176
     1
290
     0
176
     1
290
     0
176
     1
290
     0
176
     1
290
     0
176
     1
290
     0
176
     1
290
     0
176
     1
 90
       50
176
     1
 40
0.0
176
     1
 40
1.0
176
     1
 90
        0
176
     1
 62
    18
420
        0
176
     1
 90
       50
176
     1
 90
        3
176
     1
 62
     5
420
      255
176
     1
290
     0
176
     1
 90
       50
176
     1
 90
       50
176
     1
 90
       50
176
     1
290
     0
176
     1
 90
       50
176
     1
 62
   256
176
     0
 40
1.0
176
     0
 90
        2
176
     1
  1
strokes_ogs.tif
176
     1
290
     0
176
     1
 40
1.0
176
     1
 40
1.0
176
     1
1001
ACAD
1000
AcRTDxfName
1000
VISUALSTYLE
  0
VISUALSTYLE
  5
823C
102
{ACAD_REACTORS
330
823A
102
}
330
823A
100
AcDbVisualStyle
  2
FlatWithEdges
 70
     1
177
     3
291
     1
 70
    58
 90
        2
176
     1
 90
        1
176
     1
 90
        1
176
     1
 90
        2
176
     1
 40
0.6
176
     1
 40
30.0
176
     1
 62
     7
176
     1
 90
        1
176
     1
 90
        4
176
     1
 62
     7
176
     1
 62
   257
176
     1
 90
        1
176
     1
 90
        1
176
     1
 40
1.0
176
     1
 90
        0
176
     1
 62
   257
176
     1
 40
1.0
176
     1
 90
        1
176
     1
 90
        6
176
     1
 90
        2
176
     1
 62
     7
176
     1
 90
        5
176
     1
 90
        0
176
     1
 90
        0
176
     1
290
     0
176
     1
 90
       13
176
     1
 40
0.0
176
     1
 90
        0
176
     1
290
     0
176
     1
290
     1
176
     1
290
     1
176
     1
290
     0
176
     1
290
     0
176
     1
290
     0
176
     1
290
     0
176
     1
290
     0
176
     1
290
     0
176
     1
 90
       50
176
     1
 40
0.0
176
     1
 40
1.0
176
     1
 90
        0
176
     1
 62
    18
420
        0
176
     1
 90
       50
176
     1
 90
        3
176
     1
 62
     5
420
      255
176
     1
290
     0
176
     1
 90
       50
176
     1
 90
       50
176
     1
 90
       50
176
     1
290
     0
176
     1
 90
       50
176
     1
 62
   256
176
     0
 40
1.0
176
     0
 90
        2
176
     1
  1
strokes_ogs.tif
176
     1
290
     0
176
     1
 40
1.0
176
     1
 40
1.0
176
     1
1001
ACAD
1000
AcRTDxfName
1000
VISUALSTYLE
  0
VISUALSTYLE
  5
823D
102
{ACAD_REACTORS
330
823A
102
}
330
823A
100
AcDbVisualStyle
  2
Gouraud
 70
     2
177
     3
291
     1
 70
    58
 90
        2
176
     1
 90
        2
176
     1
 90
        1
176
     1
 90
        2
176
     1
 40
0.6
176
     1
 40
30.0
176
     1
 62
     7
176
     1
 90
        0
176
     1
 90
        4
176
     1
 62
     7
176
     1
 62
   257
176
     1
 90
        1
176
     1
 90
        1
176
     1
 40
1.0
176
     1
 90
        0
176
     1
 62
     7
176
     1
 40
1.0
176
     1
 90
        1
176
     1
 90
        6
176
     1
 90
        2
176
     1
 62
     7
176
     1
 90
        5
176
     1
 90
        0
176
     1
 90
        0
176
     1
290
     0
176
     1
 90
       13
176
     1
 40
0.0
176
     1
 90
        0
176
     1
290
     0
176
     1
290
     1
176
     1
290
     1
176
     1
290
     0
176
     1
290
     0
176
     1
290
     0
176
     1
290
     0
176
     1
290
     0
176
     1
290
     0
176
     1
 90
       50
176
     1
 40
0.0
176
     1
 40
1.0
176
     1
 90
        0
176
     1
 62
    18
420
        0
176
     1
 90
       50
176
     1
 90
        3
176
     1
 62
     5
420
      255
176
     1
290
     0
176
     1
 90
       50
176
     1
 90
       50
176
     1
 90
       50
176
     1
290
     0
176
     1
 90
       50
176
     1
 62
   256
176
     0
 40
1.0
176
     0
 90
        2
176
     1
  1
strokes_ogs.tif
176
     1
290
     0
176
     1
 40
1.0
176
     1
 40
1.0
176
     1
1001
ACAD
1000
AcRTDxfName
1000
VISUALSTYLE
  0
VISUALSTYLE
  5
823E
102
{ACAD_REACTORS
330
823A
102
}
330
823A
100
AcDbVisualStyle
  2
GouraudWithEdges
 70
     3
177
     3
291
     1
 70
    58
 90
        2
176
     1
 90
        2
176
     1
 90
        1
176
     1
 90
        2
176
     1
 40
0.6
176
     1
 40
30.0
176
     1
 62
     7
176
     1
 90
        1
176
     1
 90
        4
176
     1
 62
     7
176
     1
 62
   257
176
     1
 90
        1
176
     1
 90
        1
176
     1
 40
1.0
176
     1
 90
        0
176
     1
 62
   257
176
     1
 40
1.0
176
     1
 90
        1
176
     1
 90
        6
176
     1
 90
        2
176
     1
 62
     7
176
     1
 90
        5
176
     1
 90
        0
176
     1
 90
        0
176
     1
290
     0
176
     1
 90
       13
176
     1
 40
0.0
176
     1
 90
        0
176
     1
290
     0
176
     1
290
     1
176
     1
290
     1
176
     1
290
     0
176
     1
290
     0
176
     1
290
     0
176
     1
290
     0
176
     1
290
     0
176
     1
290
     0
176
     1
 90
       50
176
     1
 40
0.0
176
     1
 40
1.0
176
     1
 90
        0
176
     1
 62
    18
420
        0
176
     1
 90
       50
176
     1
 90
        3
176
     1
 62
     5
420
      255
176
     1
290
     0
176
     1
 90
       50
176
     1
 90
       50
176
     1
 90
       50
176
     1
290
     0
176
     1
 90
       50
176
     1
 62
   256
176
     0
 40
1.0
176
     0
 90
        2
176
     1
  1
strokes_ogs.tif
176
     1
290
     0
176
     1
 40
1.0
176
     1
 40
1.0
176
     1
1001
ACAD
1000
AcRTDxfName
1000
VISUALSTYLE
  0
VISUALSTYLE
  5
83B0
102
{ACAD_REACTORS
330
823A
102
}
330
823A
100
AcDbVisualStyle
  2
Hidden
 70
     6
177
     3
291
     0
 70
    58
 90
        1
176
     1
 90
        2
176
     1
 90
        2
176
     1
 90
        0
176
     1
 40
0.6
176
     1
 40
30.0
176
     1
 62
     7
176
     1
 90
        2
176
     1
 90
        2
176
     1
 62
     7
176
     1
 62
   257
176
     1
 90
        2
176
     1
 90
        1
176
     1
 40
40.0
176
     1
 90
        0
176
     1
 62
   257
176
     1
 40
1.0
176
     1
 90
        1
176
     1
 90
        6
176
     1
 90
        2
176
     1
 62
     7
176
     1
 90
        3
176
     1
 90
        0
176
     1
 90
        0
176
     1
290
     0
176
     1
 90
        1
176
     1
 40
0.0
176
     1
 90
        0
176
     1
290
     0
176
     1
290
     1
176
     1
290
     1
176
     1
290
     0
176
     1
290
     0
176
     1
290
     0
176
     1
290
     0
176
     1
290
     0
176
     1
290
     0
176
     1
 90
       50
176
     1
 40
0.0
176
     1
 40
1.0
176
     1
 90
        0
176
     1
 62
    18
420
        0
176
     1
 90
       50
176
     1
 90
        3
176
     1
 62
     5
420
      255
176
     1
290
     0
176
     1
 90
       50
176
     1
 90
       50
176
     1
 90
       50
176
     1
290
     0
176
     1
 90
       50
176
     1
 62
   256
176
     0
 40
1.0
176
     0
 90
        2
176
     1
  1
strokes_ogs.tif
176
     1
290
     0
176
     1
 40
1.0
176
     1
 40
1.0
176
     1
  0
VISUALSTYLE
  5
83B6
102
{ACAD_REACTORS
330
823A
102
}
330
823A
100
AcDbVisualStyle
  2
JitterOff
 70
    20
177
     3
291
     1
 70
    58
 90
        2
176
     0
 90
        2
176
     0
 90
        0
176
     0
 90
        0
176
     0
 40
0.6
176
     0
 40
30.0
176
     0
 62
     7
176
     0
 90
        1
176
     0
 90
        4
176
     0
 62
     7
176
     0
 62
   257
176
     0
 90
        1
176
     0
 90
        1
176
     0
 40
1.0
176
     0
 90
       10
176
     2
 62
     7
176
     0
 40
1.0
176
     0
 90
        1
176
     0
 90
        6
176
     0
 90
        2
176
     0
 62
     7
176
     0
 90
        5
176
     0
 90
        0
176
     0
 90
        0
176
     0
290
     0
176
     0
 90
        1
176
     0
 40
0.0
176
     0
 90
        0
176
     0
290
     0
176
     1
290
     1
176
     1
290
     1
176
     1
290
     0
176
     1
290
     0
176
     1
290
     0
176
     1
290
     0
176
     1
290
     0
176
     1
290
     0
176
     1
 90
       50
176
     1
 40
0.0
176
     1
 40
1.0
176
     1
 90
        0
176
     1
 62
    18
420
        0
176
     1
 90
       50
176
     1
 90
        3
176
     1
 62
     5
420
      255
176
     1
290
     0
176
     1
 90
       50
176
     1
 90
       50
176
     1
 90
       50
176
     1
290
     0
176
     1
 90
       50
176
     1
 62
   256
176
     0
 40
1.0
176
     0
 90
        2
176
     1
  1
strokes_ogs.tif
176
     1
290
     0
176
     1
 40
1.0
176
     1
 40
1.0
176
     1
  0
VISUALSTYLE
  5
8248
102
{ACAD_REACTORS
330
823A
102
}
330
823A
100
AcDbVisualStyle
  2
Linepattern
 70
    14
177
     3
291
     1
 70
    58
 90
        2
176
     1
 90
        2
176
     1
 90
        0
176
     1
 90
        0
176
     1
 40
0.6
176
     1
 40
30.0
176
     1
 62
     7
176
     1
 90
        1
176
     1
 90
        4
176
     1
 62
     7
176
     1
 62
   257
176
     1
 90
        7
176
     1
 90
        7
176
     1
 40
1.0
176
     1
 90
        8
176
     1
 62
     7
176
     1
 40
1.0
176
     1
 90
        1
176
     1
 90
        6
176
     1
 90
        2
176
     1
 62
     7
176
     1
 90
        5
176
     1
 90
        0
176
     1
 90
        0
176
     1
290
     0
176
     1
 90
        1
176
     1
 40
0.0
176
     1
 90
        0
176
     1
290
     0
176
     1
290
     1
176
     1
290
     1
176
     1
290
     0
176
     1
290
     0
176
     1
290
     0
176
     1
290
     0
176
     1
290
     0
176
     1
290
     0
176
     1
 90
       50
176
     1
 40
0.0
176
     1
 40
1.0
176
     1
 90
        0
176
     1
 62
    18
420
        0
176
     1
 90
       50
176
     1
 90
        3
176
     1
 62
     5
420
      255
176
     1
290
     0
176
     1
 90
       50
176
     1
 90
       50
176
     1
 90
       50
176
     1
290
     0
176
     1
 90
       50
176
     1
 62
   256
176
     0
 40
1.0
176
     0
 90
        2
176
     1
  1
strokes_ogs.tif
176
     1
290
     0
176
     1
 40
1.0
176
     1
 40
1.0
176
     1
1001
ACAD
1000
AcRTDxfName
1000
VISUALSTYLE
  0
VISUALSTYLE
  5
83B7
102
{ACAD_REACTORS
330
823A
102
}
330
823A
100
AcDbVisualStyle
  2
OverhangOff
 70
    21
177
     3
291
     1
 70
    58
 90
        2
176
     0
 90
        2
176
     0
 90
        0
176
     0
 90
        0
176
     0
 40
0.6
176
     0
 40
30.0
176
     0
 62
     7
176
     0
 90
        1
176
     0
 90
        4
176
     0
 62
     7
176
     0
 62
   257
176
     0
 90
        1
176
     0
 90
        1
176
     0
 40
1.0
176
     0
 90
        9
176
     2
 62
     7
176
     0
 40
1.0
176
     0
 90
        1
176
     0
 90
        6
176
     0
 90
        2
176
     0
 62
     7
176
     0
 90
        5
176
     0
 90
        0
176
     0
 90
        0
176
     0
290
     0
176
     0
 90
        1
176
     0
 40
0.0
176
     0
 90
        0
176
     0
290
     0
176
     1
290
     1
176
     1
290
     1
176
     1
290
     0
176
     1
290
     0
176
     1
290
     0
176
     1
290
     0
176
     1
290
     0
176
     1
290
     0
176
     1
 90
       50
176
     1
 40
0.0
176
     1
 40
1.0
176
     1
 90
        0
176
     1
 62
    18
420
        0
176
     1
 90
       50
176
     1
 90
        3
176
     1
 62
     5
420
      255
176
     1
290
     0
176
     1
 90
       50
176
     1
 90
       50
176
     1
 90
       50
176
     1
290
     0
176
     1
 90
       50
176
     1
 62
   256
176
     0
 40
1.0
176
     0
 90
        2
176
     1
  1
strokes_ogs.tif
176
     1
290
     0
176
     1
 40
1.0
176
     1
 40
1.0
176
     1
  0
VISUALSTYLE
  5
8244
102
{ACAD_REACTORS
330
823A
102
}
330
823A
100
AcDbVisualStyle
  2
Realistic
 70
     8
177
     3
291
     0
 70
    58
 90
        2
176
     1
 90
        2
176
     1
 90
        0
176
     1
 90
        0
176
     1
 40
0.6
176
     1
 40
30.0
176
     1
 62
     7
176
     1
 90
        1
176
     1
 90
        0
176
     1
 62
     7
176
     1
 62
   257
176
     1
 90
        1
176
     1
 90
        1
176
     1
 40
1.0
176
     1
 90
        8
176
     1
 62
     8
176
     1
 40
1.0
176
     1
 90
        1
176
     1
 90
        6
176
     1
 90
        2
176
     1
 62
     7
176
     1
 90
        5
176
     1
 90
        0
176
     1
 90
        0
176
     1
290
     0
176
     1
 90
       13
176
     1
 40
0.0
176
     1
 90
        0
176
     1
290
     0
176
     1
290
     1
176
     1
290
     1
176
     1
290
     0
176
     1
290
     0
176
     1
290
     0
176
     1
290
     0
176
     1
290
     0
176
     1
290
     0
176
     1
 90
       50
176
     1
 40
0.0
176
     1
 40
1.0
176
     1
 90
        0
176
     1
 62
    18
420
        0
176
     1
 90
       50
176
     1
 90
        3
176
     1
 62
     5
420
      255
176
     1
290
     0
176
     1
 90
       50
176
     1
 90
       50
176
     1
 90
       50
176
     1
290
     0
176
     1
 90
       50
176
     1
 62
   256
176
     0
 40
1.0
176
     0
 90
        2
176
     1
  1
strokes_ogs.tif
176
     1
290
     0
176
     1
 40
1.0
176
     1
 40
1.0
176
     1
1001
ACAD
1000
AcRTDxfName
1000
VISUALSTYLE
  0
VISUALSTYLE
  5
83B5
102
{ACAD_REACTORS
330
823A
102
}
330
823A
100
AcDbVisualStyle
  2
Shaded
 70
    27
177
     3
291
     0
 70
    58
 90
        2
176
     1
 90
        2
176
     1
 90
        1
176
     1
 90
        2
176
     1
 40
0.6
176
     1
 40
30.0
176
     1
 62
     7
176
     1
 90
        0
176
     1
 90
        4
176
     1
 62
     7
176
     1
 62
   257
176
     1
 90
        1
176
     1
 90
        1
176
     1
 40
1.0
176
     1
 90
        8
176
     1
 62
   257
176
     1
 40
1.0
176
     1
 90
        1
176
     1
 90
        6
176
     1
 90
        2
176
     1
 62
     8
176
     1
 90
        3
176
     1
 90
        0
176
     1
 90
        0
176
     1
290
     0
176
     1
 90
        5
176
     1
 40
0.0
176
     1
 90
        0
176
     1
290
     0
176
     1
290
     1
176
     1
290
     1
176
     1
290
     0
176
     1
290
     0
176
     1
290
     0
176
     1
290
     0
176
     1
290
     0
176
     1
290
     0
176
     1
 90
       50
176
     1
 40
0.0
176
     1
 40
1.0
176
     1
 90
        0
176
     1
 62
    18
420
        0
176
     1
 90
       50
176
     1
 90
        3
176
     1
 62
     5
420
      255
176
     1
290
     0
176
     1
 90
       50
176
     1
 90
       50
176
     1
 90
       50
176
     1
290
     0
176
     1
 90
       50
176
     1
 62
   256
176
     0
 40
1.0
176
     0
 90
        2
176
     1
  1
strokes_ogs.tif
176
     1
290
     0
176
     1
 40
1.0
176
     1
 40
1.0
176
     1
  0
VISUALSTYLE
  5
83B4
102
{ACAD_REACTORS
330
823A
102
}
330
823A
100
AcDbVisualStyle
  2
Shaded with edges
 70
    26
177
     3
291
     0
 70
    58
 90
        2
176
     1
 90
        2
176
     1
 90
        1
176
     1
 90
        2
176
     1
 40
0.6
176
     1
 40
30.0
176
     1
 62
     7
176
     1
 90
        1
176
     1
 90
        2
176
     1
 62
     7
176
     1
 62
   257
176
     1
 90
        2
176
     1
 90
        1
176
     1
 40
1.0
176
     1
 90
        8
176
     1
 62
   257
176
     1
 40
1.0
176
     1
 90
        1
176
     1
 90
        6
176
     1
 90
        2
176
     1
 62
     7
176
     1
 90
        3
176
     1
 90
        0
176
     1
 90
        0
176
     1
290
     0
176
     1
 90
        5
176
     1
 40
0.0
176
     1
 90
        0
176
     1
290
     0
176
     1
290
     1
176
     1
290
     1
176
     1
290
     0
176
     1
290
     0
176
     1
290
     0
176
     1
290
     0
176
     1
290
     0
176
     1
290
     0
176
     1
 90
       50
176
     1
 40
0.0
176
     1
 40
1.0
176
     1
 90
        0
176
     1
 62
    18
420
        0
176
     1
 90
       50
176
     1
 90
        3
176
     1
 62
     5
420
      255
176
     1
290
     0
176
     1
 90
       50
176
     1
 90
       50
176
     1
 90
       50
176
     1
290
     0
176
     1
 90
       50
176
     1
 62
   256
176
     0
 40
1.0
176
     0
 90
        2
176
     1
  1
strokes_ogs.tif
176
     1
290
     0
176
     1
 40
1.0
176
     1
 40
1.0
176
     1
  0
VISUALSTYLE
  5
83B1
102
{ACAD_REACTORS
330
823A
102
}
330
823A
100
AcDbVisualStyle
  2
Shades of Gray
 70
    23
177
     3
291
     0
 70
    58
 90
        2
176
     1
 90
        2
176
     1
 90
        3
176
     1
 90
        0
176
     1
 40
0.6
176
     1
 40
30.0
176
     1
 62
     7
176
     1
 90
        2
176
     1
 90
        2
176
     1
 62
     7
176
     1
 62
     7
176
     1
 90
        1
176
     1
 90
        1
176
     1
 40
40.0
176
     1
 90
        8
176
     1
 62
     7
176
     1
 40
1.0
176
     1
 90
        1
176
     1
 90
        6
176
     1
 90
        2
176
     1
 62
     7
176
     1
 90
        3
176
     1
 90
        0
176
     1
 90
        0
176
     1
290
     0
176
     1
 90
        1
176
     1
 40
0.0
176
     1
 90
        0
176
     1
290
     0
176
     1
290
     1
176
     1
290
     1
176
     1
290
     0
176
     1
290
     0
176
     1
290
     0
176
     1
290
     0
176
     1
290
     0
176
     1
290
     0
176
     1
 90
       50
176
     1
 40
0.0
176
     1
 40
1.0
176
     1
 90
        0
176
     1
 62
    18
420
        0
176
     1
 90
       50
176
     1
 90
        3
176
     1
 62
     5
420
      255
176
     1
290
     0
176
     1
 90
       50
176
     1
 90
       50
176
     1
 90
       50
176
     1
290
     0
176
     1
 90
       50
176
     1
 62
   256
176
     0
 40
1.0
176
     0
 90
        2
176
     1
  1
strokes_ogs.tif
176
     1
290
     0
176
     1
 40
1.0
176
     1
 40
1.0
176
     1
  0
VISUALSTYLE
  5
83B2
102
{ACAD_REACTORS
330
823A
102
}
330
823A
100
AcDbVisualStyle
  2
Sketchy
 70
    24
177
     3
291
     0
 70
    58
 90
        1
176
     1
 90
        2
176
     1
 90
        2
176
     1
 90
        0
176
     1
 40
0.6
176
     1
 40
30.0
176
     1
 62
     7
176
     1
 90
        2
176
     1
 90
        2
176
     1
 62
     7
176
     1
 62
     7
176
     1
 90
        1
176
     1
 90
        1
176
     1
 40
40.0
176
     1
 90
       11
176
     1
 62
     7
176
     1
 40
1.0
176
     1
 90
        1
176
     1
 90
        6
176
     1
 90
        2
176
     1
 62
     7
176
     1
 90
        6
176
     1
 90
        0
176
     1
 90
        0
176
     1
290
     0
176
     1
 90
        1
176
     1
 40
0.0
176
     1
 90
        0
176
     1
290
     0
176
     1
290
     1
176
     1
290
     1
176
     1
290
     0
176
     1
290
     0
176
     1
290
     0
176
     1
290
     0
176
     1
290
     0
176
     1
290
     0
176
     1
 90
       50
176
     1
 40
0.0
176
     1
 40
1.0
176
     1
 90
        0
176
     1
 62
    18
420
        0
176
     1
 90
       50
176
     1
 90
        3
176
     1
 62
     5
420
      255
176
     1
290
     0
176
     1
 90
       50
176
     1
 90
       50
176
     1
 90
       50
176
     1
290
     0
176
     1
 90
       50
176
     1
 62
   256
176
     0
 40
1.0
176
     0
 90
        2
176
     1
  1
strokes_ogs.tif
176
     1
290
     0
176
     1
 40
1.0
176
     1
 40
1.0
176
     1
  0
VISUALSTYLE
  5
8247
102
{ACAD_REACTORS
330
823A
102
}
330
823A
100
AcDbVisualStyle
  2
Thicken
 70
    13
177
     3
291
     1
 70
    58
 90
        2
176
     1
 90
        2
176
     1
 90
        0
176
     1
 90
        0
176
     1
 40
0.6
176
     1
 40
30.0
176
     1
 62
     7
176
     1
 90
        1
176
     1
 90
        4
176
     1
 62
     7
176
     1
 62
   257
176
     1
 90
        1
176
     1
 90
        1
176
     1
 40
1.0
176
     1
 90
       12
176
     1
 62
     7
176
     1
 40
1.0
176
     1
 90
        1
176
     1
 90
        6
176
     1
 90
        2
176
     1
 62
     7
176
     1
 90
        5
176
     1
 90
        0
176
     1
 90
        0
176
     1
290
     0
176
     1
 90
        1
176
     1
 40
0.0
176
     1
 90
        0
176
     1
290
     0
176
     1
290
     1
176
     1
290
     1
176
     1
290
     0
176
     1
290
     0
176
     1
290
     0
176
     1
290
     0
176
     1
290
     0
176
     1
290
     0
176
     1
 90
       50
176
     1
 40
0.0
176
     1
 40
1.0
176
     1
 90
        0
176
     1
 62
    18
420
        0
176
     1
 90
       50
176
     1
 90
        3
176
     1
 62
     5
420
      255
176
     1
290
     0
176
     1
 90
       50
176
     1
 90
       50
176
     1
 90
       50
176
     1
290
     0
176
     1
 90
       50
176
     1
 62
   256
176
     0
 40
1.0
176
     0
 90
        2
176
     1
  1
strokes_ogs.tif
176
     1
290
     0
176
     1
 40
1.0
176
     1
 40
1.0
176
     1
1001
ACAD
1000
AcRTDxfName
1000
VISUALSTYLE
  0
VISUALSTYLE
  5
83AF
102
{ACAD_REACTORS
330
823A
102
}
330
823A
100
AcDbVisualStyle
  2
Wireframe
 70
     5
177
     3
291
     0
 70
    58
 90
        0
176
     1
 90
        2
176
     1
 90
        0
176
     1
 90
        0
176
     1
 40
0.6
176
     1
 40
30.0
176
     1
 62
     7
176
     1
 90
        1
176
     1
 90
        4
176
     1
 62
     7
176
     1
 62
   257
176
     1
 90
        1
176
     1
 90
        1
176
     1
 40
1.0
176
     1
 90
        0
176
     1
 62
   257
176
     1
 40
1.0
176
     1
 90
        1
176
     1
 90
        6
176
     1
 90
        2
176
     1
 62
     7
176
     1
 90
        3
176
     1
 90
        0
176
     1
 90
        0
176
     1
290
     0
176
     1
 90
        1
176
     1
 40
0.0
176
     1
 90
        0
176
     1
290
     0
176
     1
290
     1
176
     1
290
     1
176
     1
290
     0
176
     1
290
     0
176
     1
290
     0
176
     1
290
     0
176
     1
290
     0
176
     1
290
     0
176
     1
 90
       50
176
     1
 40
0.0
176
     1
 40
1.0
176
     1
 90
        0
176
     1
 62
    18
420
        0
176
     1
 90
       50
176
     1
 90
        3
176
     1
 62
     5
420
      255
176
     1
290
     0
176
     1
 90
       50
176
     1
 90
       50
176
     1
 90
       50
176
     1
290
     0
176
     1
 90
       50
176
     1
 62
   256
176
     0
 40
1.0
176
     0
 90
        2
176
     1
  1
strokes_ogs.tif
176
     1
290
     0
176
     1
 40
1.0
176
     1
 40
1.0
176
     1
  0
VISUALSTYLE
  5
83B3
102
{ACAD_REACTORS
330
823A
102
}
330
823A
100
AcDbVisualStyle
  2
X-Ray
 70
    25
177
     3
291
     0
 70
    58
 90
        2
176
     1
 90
        2
176
     1
 90
        1
176
     1
 90
        1
176
     1
 40
0.5
176
     1
 40
30.0
176
     1
 62
     7
176
     1
 90
        1
176
     1
 90
        0
176
     1
 62
     7
176
     1
 62
   257
176
     1
 90
        1
176
     1
 90
        1
176
     1
 40
1.0
176
     1
 90
        8
176
     1
 62
     7
176
     1
 40
1.0
176
     1
 90
        1
176
     1
 90
        6
176
     1
 90
        2
176
     1
 62
     7
176
     1
 90
        3
176
     1
 90
        0
176
     1
 90
        0
176
     1
290
     0
176
     1
 90
       13
176
     1
 40
0.0
176
     1
 90
        0
176
     1
290
     0
176
     1
290
     1
176
     1
290
     1
176
     1
290
     0
176
     1
290
     0
176
     1
290
     0
176
     1
290
     0
176
     1
290
     0
176
     1
290
     0
176
     1
 90
       50
176
     1
 40
0.0
176
     1
 40
1.0
176
     1
 90
        0
176
     1
 62
    18
420
        0
176
     1
 90
       50
176
     1
 90
        3
176
     1
 62
     5
420
      255
176
     1
290
     0
176
     1
 90
       50
176
     1
 90
       50
176
     1
 90
       50
176
     1
290
     0
176
     1
 90
       50
176
     1
 62
   256
176
     0
 40
1.0
176
     0
 90
        2
176
     1
  1
strokes_ogs.tif
176
     1
290
     0
176
     1
 40
1.0
176
     1
 40
1.0
176
     1
  0
DICTIONARYVAR
  5
8299
102
{ACAD_REACTORS
330
3E
102
}
330
3E
100
DictionaryVariables
280
     0
  1
1:1
  0
DICTIONARYVAR
  5
8297
102
{ACAD_REACTORS
330
3E
102
}
330
3E
100
DictionaryVariables
280
     0
  1
STANDARD
  0
DICTIONARYVAR
  5
8085
102
{ACAD_REACTORS
330
3E
102
}
330
3E
100
DictionaryVariables
280
     0
  1
STANDARD
  0
DICTIONARYVAR
  5
AE54
102
{ACAD_REACTORS
330
3E
102
}
330
3E
100
DictionaryVariables
280
     0
  1
Imperial24
  0
DICTIONARYVAR
  5
AE55
102
{ACAD_REACTORS
330
3E
102
}
330
3E
100
DictionaryVariables
280
     0
  1
Imperial24
  0
DICTIONARYVAR
  5
3F
102
{ACAD_REACTORS
330
3E
102
}
330
3E
100
DictionaryVariables
280
     0
  1
0
  0
DICTIONARYVAR
  5
836A
102
{ACAD_REACTORS
330
3E
102
}
330
3E
100
DictionaryVariables
280
     0
  1
2
  0
DICTIONARYVAR
  5
8395
102
{ACAD_REACTORS
330
3E
102
}
330
3E
100
DictionaryVariables
280
     0
  1
0
  0
DICTIONARYVAR
  5
86EF
102
{ACAD_REACTORS
330
3E
102
}
330
3E
100
DictionaryVariables
280
     0
  1
1
  0
DICTIONARYVAR
  5
86F0
102
{ACAD_REACTORS
330
3E
102
}
330
3E
100
DictionaryVariables
280
     0
  1
15
  0
DICTIONARYVAR
  5
829A
102
{ACAD_REACTORS
330
3E
102
}
330
3E
100
DictionaryVariables
280
     0
  1
0
  0
DICTIONARYVAR
  5
8298
102
{ACAD_REACTORS
330
3E
102
}
330
3E
100
DictionaryVariables
280
     0
  1
0
  0
DICTIONARYVAR
  5
836B
102
{ACAD_REACTORS
330
3E
102
}
330
3E
100
DictionaryVariables
280
     0
  1

  0
DICTIONARYVAR
  5
8394
102
{ACAD_REACTORS
330
3E
102
}
330
3E
100
DictionaryVariables
280
     0
  1
127
  0
DICTIONARY
  5
822B
330
822A
100
AcDbDictionary
280
     1
281
     1
  3
BUMPTILE
360
822D
  3
DIFFUSETILE
360
822C
  3
OPACITYTILE
360
8230
  3
REFLECTIONTILE
360
822F
  3
REFRACTIONTILE
360
8231
  3
SPECULARTILE
360
822E
  0
DICTIONARY
  5
8223
330
8222
100
AcDbDictionary
280
     1
281
     1
  3
BUMPTILE
360
8225
  3
DIFFUSETILE
360
8224
  3
OPACITYTILE
360
8228
  3
REFLECTIONTILE
360
8227
  3
REFRACTIONTILE
360
8229
  3
SPECULARTILE
360
8226
  0
DICTIONARY
  5
8233
330
8232
100
AcDbDictionary
280
     1
281
     1
  3
BUMPTILE
360
8235
  3
DIFFUSETILE
360
8234
  3
OPACITYTILE
360
8238
  3
REFLECTIONTILE
360
8237
  3
REFRACTIONTILE
360
8239
  3
SPECULARTILE
360
8236
  0
DICTIONARY
  5
8294
330
8059
100
AcDbDictionary
280
     1
281
     1
  3
ACAD_ROUNDTRIP_2008_TABLESTYLE_CELLSTYLEMAP
360
B343
  0
XRECORD
  5
822D
102
{ACAD_REACTORS
330
822B
102
}
330
822B
100
AcDbXrecord
280
     1
270
     1
271
     1
  0
XRECORD
  5
822C
102
{ACAD_REACTORS
330
822B
102
}
330
822B
100
AcDbXrecord
280
     1
270
     1
271
     1
  0
XRECORD
  5
8230
102
{ACAD_REACTORS
330
822B
102
}
330
822B
100
AcDbXrecord
280
     1
270
     1
271
     1
  0
XRECORD
  5
822F
102
{ACAD_REACTORS
330
822B
102
}
330
822B
100
AcDbXrecord
280
     1
270
     1
271
     1
  0
XRECORD
  5
8231
102
{ACAD_REACTORS
330
822B
102
}
330
822B
100
AcDbXrecord
280
     1
270
     1
271
     1
  0
XRECORD
  5
822E
102
{ACAD_REACTORS
330
822B
102
}
330
822B
100
AcDbXrecord
280
     1
270
     1
271
     1
  0
XRECORD
  5
8225
102
{ACAD_REACTORS
330
8223
102
}
330
8223
100
AcDbXrecord
280
     1
270
     1
271
     1
  0
XRECORD
  5
8224
102
{ACAD_REACTORS
330
8223
102
}
330
8223
100
AcDbXrecord
280
     1
270
     1
271
     1
  0
XRECORD
  5
8228
102
{ACAD_REACTORS
330
8223
102
}
330
8223
100
AcDbXrecord
280
     1
270
     1
271
     1
  0
XRECORD
  5
8227
102
{ACAD_REACTORS
330
8223
102
}
330
8223
100
AcDbXrecord
280
     1
270
     1
271
     1
  0
XRECORD
  5
8229
102
{ACAD_REACTORS
330
8223
102
}
330
8223
100
AcDbXrecord
280
     1
270
     1
271
     1
  0
XRECORD
  5
8226
102
{ACAD_REACTORS
330
8223
102
}
330
8223
100
AcDbXrecord
280
     1
270
     1
271
     1
  0
XRECORD
  5
8235
102
{ACAD_REACTORS
330
8233
102
}
330
8233
100
AcDbXrecord
280
     1
270
     1
271
     1
  0
XRECORD
  5
8234
102
{ACAD_REACTORS
330
8233
102
}
330
8233
100
AcDbXrecord
280
     1
270
     1
271
     1
  0
XRECORD
  5
8238
102
{ACAD_REACTORS
330
8233
102
}
330
8233
100
AcDbXrecord
280
     1
270
     1
271
     1
  0
XRECORD
  5
8237
102
{ACAD_REACTORS
330
8233
102
}
330
8233
100
AcDbXrecord
280
     1
270
     1
271
     1
  0
XRECORD
  5
8239
102
{ACAD_REACTORS
330
8233
102
}
330
8233
100
AcDbXrecord
280
     1
270
     1
271
     1
  0
XRECORD
  5
8236
102
{ACAD_REACTORS
330
8233
102
}
330
8233
100
AcDbXrecord
280
     1
270
     1
271
     1
  0
CELLSTYLEMAP
  5
B343
102
{ACAD_REACTORS
330
8294
102
}
330
8294
100
AcDbCellStyleMap
 90
        3
300
CELLSTYLE
  1
TABLEFORMAT_BEGIN
 90
        5
170
     1
 91
        0
 92
    32768
 62
   257
 93
        1
300
CONTENTFORMAT
  1
CONTENTFORMAT_BEGIN
 90
        0
 91
        0
 92
        4
 93
        0
300

 40
0.0
140
1.0
 94
        5
 62
     0
340
F
144
0.25
309
CONTENTFORMAT_END
171
     1
301
MARGIN
  1
CELLMARGIN_BEGIN
 40
0.06
 40
0.06
 40
0.06
 40
0.06
 40
0.18
 40
0.18
309
CELLMARGIN_END
 94
        6
 95
        1
302
GRIDFORMAT
  1
GRIDFORMAT_BEGIN
 90
        0
 91
        1
 62
     0
 92
       -2
340
0
 93
        0
 40
0.045
309
GRIDFORMAT_END
 95
        2
302
GRIDFORMAT
  1
GRIDFORMAT_BEGIN
 90
        0
 91
        1
 62
     0
 92
       -2
340
0
 93
        0
 40
0.045
309
GRIDFORMAT_END
 95
        4
302
GRIDFORMAT
  1
GRIDFORMAT_BEGIN
 90
        0
 91
        1
 62
     0
 92
       -2
340
0
 93
        0
 40
0.045
309
GRIDFORMAT_END
 95
        8
302
GRIDFORMAT
  1
GRIDFORMAT_BEGIN
 90
        0
 91
        1
 62
     0
 92
       -2
340
0
 93
        0
 40
0.045
309
GRIDFORMAT_END
 95
       16
302
GRIDFORMAT
  1
GRIDFORMAT_BEGIN
 90
        0
 91
        1
 62
     0
 92
       -2
340
0
 93
        0
 40
0.045
309
GRIDFORMAT_END
 95
       32
302
GRIDFORMAT
  1
GRIDFORMAT_BEGIN
 90
        0
 91
        1
 62
     0
 92
       -2
340
0
 93
        0
 40
0.045
309
GRIDFORMAT_END
309
TABLEFORMAT_END
  1
CELLSTYLE_BEGIN
 90
        1
 91
        1
300
_TITLE
309
CELLSTYLE_END
300
CELLSTYLE
  1
TABLEFORMAT_BEGIN
 90
        5
170
     1
 91
        0
 92
        0
 62
   257
 93
        1
300
CONTENTFORMAT
  1
CONTENTFORMAT_BEGIN
 90
        0
 91
        0
 92
        4
 93
        0
300

 40
0.0
140
1.0
 94
        5
 62
     0
340
F
144
0.18
309
CONTENTFORMAT_END
171
     1
301
MARGIN
  1
CELLMARGIN_BEGIN
 40
0.06
 40
0.06
 40
0.06
 40
0.06
 40
0.18
 40
0.18
309
CELLMARGIN_END
 94
        6
 95
        1
302
GRIDFORMAT
  1
GRIDFORMAT_BEGIN
 90
        0
 91
        1
 62
     0
 92
       -2
340
0
 93
        0
 40
0.045
309
GRIDFORMAT_END
 95
        2
302
GRIDFORMAT
  1
GRIDFORMAT_BEGIN
 90
        0
 91
        1
 62
     0
 92
       -2
340
0
 93
        0
 40
0.045
309
GRIDFORMAT_END
 95
        4
302
GRIDFORMAT
  1
GRIDFORMAT_BEGIN
 90
        0
 91
        1
 62
     0
 92
       -2
340
0
 93
        0
 40
0.045
309
GRIDFORMAT_END
 95
        8
302
GRIDFORMAT
  1
GRIDFORMAT_BEGIN
 90
        0
 91
        1
 62
     0
 92
       -2
340
0
 93
        0
 40
0.045
309
GRIDFORMAT_END
 95
       16
302
GRIDFORMAT
  1
GRIDFORMAT_BEGIN
 90
        0
 91
        1
 62
     0
 92
       -2
340
0
 93
        0
 40
0.045
309
GRIDFORMAT_END
 95
       32
302
GRIDFORMAT
  1
GRIDFORMAT_BEGIN
 90
        0
 91
        1
 62
     0
 92
       -2
340
0
 93
        0
 40
0.045
309
GRIDFORMAT_END
309
TABLEFORMAT_END
  1
CELLSTYLE_BEGIN
 90
        2
 91
        1
300
_HEADER
309
CELLSTYLE_END
300
CELLSTYLE
  1
TABLEFORMAT_BEGIN
 90
        5
170
     1
 91
        0
 92
        0
 62
   257
 93
        1
300
CONTENTFORMAT
  1
CONTENTFORMAT_BEGIN
 90
        0
 91
        0
 92
        4
 93
        0
300

 40
0.0
140
1.0
 94
        2
 62
     0
340
F
144
0.18
309
CONTENTFORMAT_END
171
     1
301
MARGIN
  1
CELLMARGIN_BEGIN
 40
0.06
 40
0.06
 40
0.06
 40
0.06
 40
0.18
 40
0.18
309
CELLMARGIN_END
 94
        6
 95
        1
302
GRIDFORMAT
  1
GRIDFORMAT_BEGIN
 90
        0
 91
        1
 62
     0
 92
       -2
340
0
 93
        0
 40
0.045
309
GRIDFORMAT_END
 95
        2
302
GRIDFORMAT
  1
GRIDFORMAT_BEGIN
 90
        0
 91
        1
 62
     0
 92
       -2
340
0
 93
        0
 40
0.045
309
GRIDFORMAT_END
 95
        4
302
GRIDFORMAT
  1
GRIDFORMAT_BEGIN
 90
        0
 91
        1
 62
     0
 92
       -2
340
0
 93
        0
 40
0.045
309
GRIDFORMAT_END
 95
        8
302
GRIDFORMAT
  1
GRIDFORMAT_BEGIN
 90
        0
 91
        1
 62
     0
 92
       -2
340
0
 93
        0
 40
0.045
309
GRIDFORMAT_END
 95
       16
302
GRIDFORMAT
  1
GRIDFORMAT_BEGIN
 90
        0
 91
        1
 62
     0
 92
       -2
340
0
 93
        0
 40
0.045
309
GRIDFORMAT_END
 95
       32
302
GRIDFORMAT
  1
GRIDFORMAT_BEGIN
 90
        0
 91
        1
 62
     0
 92
       -2
340
0
 93
        0
 40
0.045
309
GRIDFORMAT_END
309
TABLEFORMAT_END
  1
CELLSTYLE_BEGIN
 90
        3
 91
        2
300
_DATA
309
CELLSTYLE_END
  0
ENDSEC
  0
EOF
